Song name
# A B C D E F G H I J K L M N O P Q R S T U V W X Y Z

Baroness - Stretchmarker tab

1st guitar

----------------------------------------------------------------------------|
-------------------1----------------------------------1---------------------|
-------------------0--3--0--3-------------------------0--3---------0--3--2--|
-5--3--5--0--0-h-1----0--1--0-----5--3--5--0---0-h-1-----0--0-h-1--------3--|
----------------------------------------------------------------------------|
-3--5--6--1-----------------------3--5--6--1--------------------------------|

(repeat till end)


2nd guitar (begins at 0:23)

-6--5-----------------------------6--5------------------------------------|
-8--6--8--6--------4--3--------3--8--6--8--6----------4--3----------------|
-------8--7--------5--3----3---3--------8--7----------5--3----3----5------|
-------------------------5---5------------------------------5---5--7------|
--------------------------------------------------------------------------|
--------------------------------------------------------------------------|
Tap to rate this tab
# A B C D E F G H I J K L M N O P Q R S T U V W X Y Z