Song name
# A B C D E F G H I J K L M N O P Q R S T U V W X Y Z

Baroness - Take My Bones Away tab

I did this in Drop B since I don't have 7 string guitar.
It's pretty rough. I know it sucks but there were no other guitar tabs for this
that I could find. Please go ahead and fix it and add in other parts!

C#|------------------------------------------------------------|
G#|------------------------------------------------------------|
E |------------------------------------------------------------|
B |----------------12--15----------------12--15----------------|
F#|----------------------------------------------12\10---------|
B |--0--12--15--0----------0--12--15--0-----------------10/12--|


  |----------------------------------------------------------|
  |----------------------------------------------------------|
  |----------------------------------------------------------|
  |----------------12--15----------------12--15--------------|
  |----------------------------------------------12--15--12--|
  |--0--12--15--0----------0--12--15--0----------------------|

YOU LEAD THE WAY


  |--------------------------------------------|
  |--------------------------------------------|
  |--------------------------------------------|
  |--3--3--3--3--3--3--3--3--3--3--3--3--3--5--|
  |--3--3--3--3--3--3--3--3--3--3--3--3--3--5--|
  |--3--3--3--3--3--3--3--3--3--3--3--3--3--5--|

I'LL FOLLOW



  |--------------------------------------------------|
  |--------------------------------------------------|
  |-----------------------------------10-12\14-------|
  |--7--7-----7-----7--7-----7--10-12----------------|
  |--5--5-----5-----5--5-----5-----------------------|
  |--0--0--X--0--0--0--0--X--0-----------------------|



  |-----------------------------------------------------|
  |-----------------------------------------------------|
  |-----------------------------------------------------|
  |--7--------------------------------------------------|
  |--5--------------------------------------------------|
  |--0--0--0--0--0--0--0--0--0--0--0--0--0--0--0--0-----|

What was the plan here? I can't seem to stop!



  |----------------------------------------------------------|
  |----------------------------------------------------------|
  |----------------------------------------------------------|
  |--10------------------------------5-----------------------|
  |--10------------------------------5-----------------------|
  |--10--10--10--10--10--10--10--10--5--5--5--5--5--5--5--5--|

Pissing and spitting from bottom to top



|--------------------------------------------------------------------------------------------------|
|--------------------------------------------------------------------------------------------------|
|--------------------------------------------------------------------------------------------------|
|--12----12--12--12--12--12----12----12--12--12--12--12---10----10--10--10--10--10----7--7----5--5-|
|--12----12--12--12--12--12----12----12--12--12--12--12---10----10--10--10--10--10----7--7----5--5-|
|--12----12--12--12--12--12----12----12--12--12--12--12---10----10--10--10--10--10----7--7----5--5-|

Did you find another way Was it my turn, or yours, to say?



  |-----------------------------------------------------------------|
  |-----------------------------------------------------------------|
  |-----------------------------------------------------------------|
  |--7--7---5--7--7---5--7--7---5--7--7---5--5---5--5---5--5---5--5-|
  |--5--5---3--5--5---3--5--5---3--5--5---3--3---3--3---2--2---5--5-|
  |--0--0---0--0--0---0--0--0---0--0--0------------------------5--5-|



  |-------------------------------------------------------------------------------------|
  |-------------------------------------------------------------------------------------|
  |-------------------------------------------------------------------------------------|
  |--3--3--3--3--3--3--3--3--3--3--3--3--3--5---2--2--2--2--2--2--2--5--5--5--5--5--5---|
  |--3--3--3--3--3--3--3--3--3--3--3--3--3--3---0--0--0--0--0--0--0--3--3--3--2--2--2---|
  |--3--3--3--3--3--3--3--3--3--3--3--3--3----------------------------------------------|

Take my bones away
I'll find 'em everyday!
Tap to rate this tab
 
# A B C D E F G H I J K L M N O P Q R S T U V W X Y Z