Guitaretab - guitar tabs
Song name
# A B C D E F G H I J K L M N O P Q R S T U V W X Y Z

Barrage - Spazz Jazz tab

Barrage: Spazz Jazz

Here's the beginning to Spazz Jazz. If other people could start trying to 
work out more, that would be great.  I don't have a very good ear

Freely:

E |------12-------------------------------0-0-0---0---0---0---------------|
B |-----12---12-12-12---12\10--10--10/12----5--5---5---0---0--------------|
G |----11---------------11\-9---9-----------6---6---6---6---6-------------|
D |----12---------------12\10--10-----------6----6---6---6---6------------|
A |----11-----------------------------------5----------------------------5|
E |-0---------------------------------------------------------------------|

E |-------0--0--0--0--0--0--0---------------------------------------------|
B |------2--2--2--2--2--2--2--2-------------------------------------------|
G |-----4--4--4--4--4--4--4--4-0------------------------------------------|
D |-----------------------------------------------------------------------|
A |-0---------------------------------------------------------------------|
E |-------------------------------0---------------------------------------|
[ Tab from: http://www.guitaretab.com/b/barrage/95745.html ]
There's a little more intro, then the theme starts:
This is played either fingerpicked or hybrid, the bass notes are all 8th 
notes

Quarter note = 97

E |---9-9p7--9-9-9p7-----9-9p7--9h10-9-9p7----5-------7h8--7-5-7----------|
B |---7-7----7-7-7-------7-7----7----7-7------5-------5----5-5-5----------|
G |---7-7----7-7-7-------7-7----7----7-7------5-------5----5-5-5----------|
D |-----------------------------------------------------------------------|
A |-----------------------------------------0---0-0-0-0----0-0-0----------|
E |-0-0-0--0--00-0---0---0-0----0----0-0---------------------------0-0-0--|

Something like that.  I'll get a power tab later
If you have this song, see if you can help me out a little.
If you don't have this song, get it.  It's a great song.

E |-----------------------------------------------------------------------|
B |-----------------------------------------------------------------------|
G |-----------------------------------------------------------------------|
D |-----------------------------------------------------------------------|
A |-----------------------------------------------------------------------|
E |-----------------------------------------------------------------------|