Song name
# A B C D E F G H I J K L M N O P Q R S T U V W X Y Z

Barrett Syd - Here I Go tab

Intro:
------------------------------------------------|
--------3-3-3-------3-3-5-7---------------------|
------------------------------------------------|
---5-5---------5-5------------------------------|
---5-5---------5-5------------------------------|
---3-3---------3-3------------------------------|

--------------------------5---------------------|
--------3-3-3-------7-7-5-----------------------|
------------------------------------------------|
---7-7---------7-7------------------------------|
---7-7---------7-7------------------------------|
---5-5---------5-5------------------------------|

------------------------------------------------|
--------3-3-3-------3-3-5-7---------------------|
------------------------------------------------|
---5-5---------5-5------------------------------|
---5-5---------5-5------------------------------|
---3-3---------3-3------------------------------|

------------------------------------------------|
--------3-3-3-----------------------------------|
------------------------------------------------|
---7-7---------7-7-------7----------------------|
---7-7---------7-7-------7-x5-------------------|
---5-5---------5-5-------5----------------------|

Verses:
------------------------------------------------|
------------------------------------------------|
---------------------7-------4------------------|
----5-------7--------7-x5----4-x5---------------|
----5-x5----7-x5-----5-------2------------------|
----3-------5-----------------------------------|

Pre-Chorus:
------------------------------------------------|
------------------------------------------------|
----7------4------------------------------------|
----7------4------5-------7---------------------|
----5------2------5-------7---------------------|
------------------3-------5---------------------|
(Palm mute the last chord on the second time)

Chorus:
------------------------------------|
------------------------------------|
----7------------4------------------|
----7-----7------4------5-----------|
----5-----7------2------5-----------|
----------5-------------3-----------|

Bridge:
------------------------------------------------|
------------------------------------------------|
-----4-------------7----------------------------|
-----4------5------7------7---------------------|
-----2------5------5------7---------------------|
------------3-------------5---------------------|
(Play the first two chords choppy about 8 times)


And there you have it! Enjoy!
Tap to rate this tab
# A B C D E F G H I J K L M N O P Q R S T U V W X Y Z