Song name
# A B C D E F G H I J K L M N O P Q R S T U V W X Y Z

Barrett Syd - Love Song tab

E|---------------------|---------------------|------1---------1----|------1--------------|
B|------3---------3----|------3---------1----|------1---------1----|------1---------5----|
G|------3---------3----|------3---------2----|------3---------3----|------3---------5----|
D|------5---------5----|------5---------3----|---------------------|----------------5----|
A|---------------------|-----------0---------|-1-------------------|-----------3---------|
E|-3-------------------|---------------------|---------------------|---------------------|


E|------5---------5----|------5---------3----|------5---------5----|------5--------------|
B|------6---------6----|------6---------5----|------6---------6----|------6---------3----|
G|------7---------7----|------7---------5----|------5---------5----|------5---------2----|
D|---------------------|---------------------|---------------------|----------------4----|
A|-5-------------------|-----------7---------|-8-------------------|-----------9---------|
E|---------------------|---------------------|---------------------|---------------------|
Tap to rate this tab
# A B C D E F G H I J K L M N O P Q R S T U V W X Y Z