Song name
# A B C D E F G H I J K L M N O P Q R S T U V W X Y Z

Barrington Levy - Black Roses tab

Standard Tuning

play in a reggae style using only short up strokes

   G#m         C#m 
|--4--4--4--4--4--4--4--4-- |
|--4--4--4--4--5--5--5--5--.|
|--4--4--4--4--6--6--6--6-- |  repeat for whole song
|--6--6--6--6--6--6--6--6--.|
|--6--6--6--6--4--4--4--4-- |
|--4--4--4--4-------------- |


Bass Part
|---------------------------------- |
|---------------------6-4-----6-4--.|  repeat for whole song
|---6-4------6-4----4-----444-----6.|  
|--4-----444-----7----------------- |


http://www.barringtonlevy.com/
Tap to rate this tab
 
# A B C D E F G H I J K L M N O P Q R S T U V W X Y Z