Song name
# A B C D E F G H I J K L M N O P Q R S T U V W X Y Z

Barry Mcguire - Eve Of Destruction tab

intro
|---------------
|-6-6-6-6-7p6---
|-------------8-
|---------------
|---------------
|---------------

text
|-------------------------------
|-6-6-6-6-7p6-------------------
|-------------8-6-5---------5h6-
|-------------------8-8-8-8-----
|-------------------------------
|-------------------------------
  C#m               f#m     g#m

refrain
|-----------------------------------------------------------------
|-----------------------------------------------------------------
|-6-6-6-6-6-6-6-6-----------------6-6-6-6-6-6-6-6-6---------------
|-6-6-6-6-6-6-6-6-4-4-4-4-6-6-6-6-6-6-6-6-6-6-6-6-6-8-8-----4-4-3-
|-4-4-4-4-4-4-4-4-4-4-4-4-6-6-6-6-4-4-4-4-4-4-4-4-4-8---8-6-4-----
|-----------------2-2-2-2-4-4-4-4-------------------6-------2-----
  c#m             f#m     g#m     c#m               a#m    f#m

|-------------------------------------------------------------
|-----------------6-6-6-6-7p6---6-6-6-6-7p6-------------------
|-----------------------------8-------------8-----------------
|6-6-6-6-6-6-6-6------------------------------4-4-4-4-6-6-6-6-
|6-6-6-6-6-6-6-6------------------------------4-4-4-4-6-6-6-6-
|4-4-4-4-4-4-4-4------------------------------2-2-2-2-4-4-4-4-
 g#m              c#m                         f#m     g#m


i'm not sure but i think it's something like that! :o)
Tap to rate this tab
# A B C D E F G H I J K L M N O P Q R S T U V W X Y Z