Song name
# A B C D E F G H I J K L M N O P Q R S T U V W X Y Z

Bars - Up To My Neck tab

p - pull off
b - bend
r - release
/ - slide

Intro x2 (then pickslide)
eb|----|
Bb|----|
Gb|----|
Db|-7--|
Ab|-7--|
Db|-7--|

Verse x1
eb|-----------------------------------| x2
Bb|-----------------------------------|
Gb|-----------------------------------|
Db|-7-7-7-7-7-7-7-7--3-3-3-3-0-0-0-0--|
Ab|-7-7-7-7-7-7-7-7--3-3-3-3-0-0-0-0--|
Db|-7-7-7-7-7-7-7-7--3-3-3-3-0-0-0-0--|

eb|----------------------------------------------| x2
Bb|----------------------------------------------|
Gb|-----------------------------------------5/7--|
Db|-7-7-7-7--10p7-9p7-----------3-3-3-3-0-0-5/7--|
Ab|-7-7-7-7-----------10p7-9p7--3-3-3-3-0-0-3/5--|
Db|-7-7-7-7---------------------3-3-3-3-0-0------|


Chorus x1
eb|---------------------------------------------------| x2
Bb|---------------------------------------------------|
Gb|-7-7-7-7-7--7-7-7-7-7-----------12-12-12-12/10-10--|
Db|-7-7-7-7-7--7-7-7-7-7--3-3-3-3--12-12-12-12/10-10--|
Ab|-5-5-5-5-5--5-5-5-5-5--3-3-3-3--10-10-10-10/8--8---|
Db|-----------------------3-3-3-3---------------------|

eb|---------------------------------------------|x2
Bb|---------------------------------------------|
Gb|-7-7-10-7-10-7-10-7---10-10-10/7--12-12-12/--|
Db|-7-7-10-7-10-7-10-7---10-10-10/7--12-12-12/--|
Ab|-5-5-8--5-8--5-8--5----8--8--8/5--10-10-10/--|
Db|---------------------------------------------|


Verse x1
eb|-----------------------------------| x2
Bb|-----------------------------------|
Gb|-----------------------------------|
Db|-7-7-7-7-7-7-7-7--3-3-3-3-0-0-0-0--|
Ab|-7-7-7-7-7-7-7-7--3-3-3-3-0-0-0-0--|
Db|-7-7-7-7-7-7-7-7--3-3-3-3-0-0-0-0--|

eb|----------------------------------------------| x2
Bb|----------------------------------------------|
Gb|-----------------------------------------5/7--|
Db|-7-7-7-7--10p7-9p7-----------3-3-3-3-0-0-5/7--|
Ab|-7-7-7-7-----------10p7-9p7--3-3-3-3-0-0-3/5--|
Db|-7-7-7-7---------------------3-3-3-3-0-0------|


Chorus x1
eb|---------------------------------------------------| x2
Bb|---------------------------------------------------|
Gb|-7-7-7-7-7--7-7-7-7-7-----------12-12-12-12/10-10--|
Db|-7-7-7-7-7--7-7-7-7-7--3-3-3-3--12-12-12-12/10-10--|
Ab|-5-5-5-5-5--5-5-5-5-5--3-3-3-3--10-10-10-10/8--8---|
Db|-----------------------3-3-3-3---------------------|

eb|---------------------------------------------|----|x2 (ending only the second time)
Bb|---------------------------------------------|----|
Gb|-7-7-10-7-10-7-10-7---10-10-10/7--12-12-12/--|----|
Db|-7-7-10-7-10-7-10-7---10-10-10/7--12-12-12/--|-7--|
Ab|-5-5-8--5-8--5-8--5----8--8--8/5--10-10-10/--|-7--|
Db|---------------------------------------------|-7--|


Riff till end w/ variations. Verse under this.
eb|--------------|-5--|
Bb|--------------|-5--|
Gb|---5-7b9r7-5--|----|
Db|-7------------|----|
Ab|--------------|----|
Db|--------------|----|

Tap to rate this tab
 
# A B C D E F G H I J K L M N O P Q R S T U V W X Y Z