Song name
# A B C D E F G H I J K L M N O P Q R S T U V W X Y Z

Bars - Like It Never Was tab

~ - let ring


Intro x2 (Guitar 2 plays the verse, listen for strumming)
eb|-0-0-0-0-3-3-3-5-5-5---0-0-0-0-3-3-3-5-5-5--|
Bb|-0-0-0-0-3-3-3-5-5-5---0-0-0-0-3-3-3-5-5-5--|
Gb|--------------------------------------------|
Db|--------------------------------------------|
Ab|--------------------------------------------|
Db|--------------------------------------------|

eb|-0-0-0-0-3-3-3-5-5-5---3-3-3-3-8-8-8-10-10-10--|
Bb|-0-0-0-0-3-3-3-5-5-5---3-3-3-3-8-8-8-10-10-10--|
Gb|-----------------------------------------------|
Db|-----------------------------------------------|
Ab|-----------------------------------------------|
Db|-----------------------------------------------|


Verse x1
eb|--------------------------------------------|
Bb|--------------------------------------------|
Gb|--------------------------------------------|
Db|-2-2-2-2-5-5-5-7-7-7---2-2-2-2-5-5-5-7-7-7--|
Ab|-2-2-2-2-5-5-5-7-7-7---2-2-2-2-5-5-5-7-7-7--|
Db|-2-2-2-2-5-5-5-7-7-7---2-2-2-2-5-5-5-7-7-7--|

eb|---------------------------------------------|
Bb|---------------------------------------------|
Gb|--------------------------------5-5-5-7-7-7--|
Db|-2-2-2-2-5-5-5-7-7-7---5-5-5-5--5-5-5-7-7-7--|
Ab|-2-2-2-2-5-5-5-7-7-7---5-5-5-5--3-3-3-5-5-5--|
Db|-2-2-2-2-5-5-5-7-7-7---5-5-5-5---------------|


Chorus x1
eb|------------------------------------------------------------|
Bb|------------------------------------------------------------|
Gb|-5-5-5-5-7-7-7-7-----------------------5-5-5-5-7-7-7-7------|
Db|-5-5-5-5-7-7-7-7--2-2--5-5--7-7--8-8---5-5-5-5-7-7-7-7--2~--|
Ab|-3-3-3-3-5-5-5-5--2-2--5-5--7-7--8-8---3-3-3-3-5-5-5-5--2~--|
Db|------------------2-2--5-5--7-7--8-8--------------------2~--|


Fill x1 (variation of the verse under this)
eb|-0-0-0-0-3-3-3-5-5-5---0-0-0-0-3-3-3-5-5-5--|
Bb|-0-0-0-0-3-3-3-5-5-5---0-0-0-0-3-3-3-5-5-5--|
Gb|--------------------------------------------|
Db|--------------------------------------------|
Ab|--------------------------------------------|
Db|--------------------------------------------|

eb|-0-0-0-0-3-3-3-5-5-5---3-3-3-3-8-8-8-10-10-10--|
Bb|-0-0-0-0-3-3-3-5-5-5---3-3-3-3-8-8-8-10-10-10--|
Gb|-----------------------------------------------|
Db|-----------------------------------------------|
Ab|-----------------------------------------------|
Db|-----------------------------------------------|


Verse x2
eb|--------------------------------------------|
Bb|--------------------------------------------|
Gb|--------------------------------------------|
Db|-2-2-2-2-5-5-5-7-7-7---2-2-2-2-5-5-5-7-7-7--|
Ab|-2-2-2-2-5-5-5-7-7-7---2-2-2-2-5-5-5-7-7-7--|
Db|-2-2-2-2-5-5-5-7-7-7---2-2-2-2-5-5-5-7-7-7--|

eb|---------------------------------------------|
Bb|---------------------------------------------|
Gb|--------------------------------5-5-5-7-7-7--|
Db|-2-2-2-2-5-5-5-7-7-7---5-5-5-5--5-5-5-7-7-7--|
Ab|-2-2-2-2-5-5-5-7-7-7---5-5-5-5--3-3-3-5-5-5--|
Db|-2-2-2-2-5-5-5-7-7-7---5-5-5-5---------------|


Chorus x2
eb|------------------------------------------------------------|
Bb|------------------------------------------------------------|
Gb|-5-5-5-5-7-7-7-7-----------------------5-5-5-5-7-7-7-7------|
Db|-5-5-5-5-7-7-7-7--2-2--5-5--7-7--8-8---5-5-5-5-7-7-7-7--2~--|
Ab|-3-3-3-3-5-5-5-5--2-2--5-5--7-7--8-8---3-3-3-3-5-5-5-5--2~--|
Db|------------------2-2--5-5--7-7--8-8--------------------2~--|


Fill x3 (variation of the verse for guitar 2)
eb|-0-0-0-0-3-3-3-5-5-5---0-0-0-0-3-3-3-5-5-5--|
Bb|-0-0-0-0-3-3-3-5-5-5---0-0-0-0-3-3-3-5-5-5--|
Gb|--------------------------------------------|
Db|--------------------------------------------|
Ab|--------------------------------------------|
Db|--------------------------------------------|

eb|-0-0-0-0-3-3-3-5-5-5---3-3-3-3-8-8-8-10-10-10--|
Bb|-0-0-0-0-3-3-3-5-5-5---3-3-3-3-8-8-8-10-10-10--|
Gb|-----------------------------------------------|
Db|-----------------------------------------------|
Ab|-----------------------------------------------|
Db|-----------------------------------------------|


Riff x (verse under this)
eb|-12-12-12-12-8-8-8-10-10-10---12-12-12-12-8-8-8-10-10-10--|
Bb|-12-12-12-12-8-8-8-10-10-10---12-12-12-12-8-8-8-10-10-10--|
Gb|----------------------------------------------------------|
Db|----------------------------------------------------------|
Ab|----------------------------------------------------------|
Db|----------------------------------------------------------|

eb|-12-12-12-12-8-8-8-10-10-10---3-3-3-3-8-8-8-10-10-10--|
Bb|-12-12-12-12-8-8-8-10-10-10---3-3-3-3-8-8-8-10-10-10--|
Gb|------------------------------------------------------|
Db|------------------------------------------------------|
Ab|------------------------------------------------------|
Db|------------------------------------------------------|
Tap to rate this tab
# A B C D E F G H I J K L M N O P Q R S T U V W X Y Z