Song name
# A B C D E F G H I J K L M N O P Q R S T U V W X Y Z

Bars - Toecutter tab

b - bend
r - release
~ - hold

Intro x1
eb|------------------------------------|
Bb|------------------------------------|
Gb|-7-7-7-7-7-7-7-7--7-----------------|
Db|------------------------------------|
Ab|---------------------------3--------|
Db|---------------------0-3-5---5-3-5--|

Verse x1
eb|------------------------------------------------------|
Bb|------------------------------------------------------|
Gb|------------------------------------------------------|
Db|-0-0-3p0-3h5-6-6-6-6-6-6---0-0-3p0-3h5-6-6-6-6-3-3-3--|
Ab|-0-0-3p0-3h5-6-6-6-6-6-6---0-0-3p0-3h5-6-6-6-6-3-3-3--|
Db|-0-0-3p0-3h5-6-6-6-6-6-6---0-0-3p0-3h5-6-6-6-6-3-3-3--|

eb|-----------------------------------------------------------|
Bb|-----------------------------------------------------------|
Gb|---------------------------3-3-3-3-3-3-3-3-----------------|
Db|-0-0-3p0-3h5-6-6-6-6-6-6---3-3-3-3-3-3-3-3-----------------|
Ab|-0-0-3p0-3h5-6-6-6-6-6-6---1-1-1-1-1-1-1-1--------3--------|
Db|-0-0-3p0-3h5-6-6-6-6-6-6--------------------0-3-5---5-3-5--|


Chorus x2
Guitar 1
eb|-----------------------------------------------------------|
Bb|-15---15---15----10---------------15---15---15----10--13---|
Gb|-17b--17b--17b---12b14~14r12-10---17b--17b--17b---12b-15b--|
Db|-----------------------------------------------------------|
Ab|-----------------------------------------------------------|
Db|-----------------------------------------------------------|
Guitar 2
eb|--------------------------------------|----|
Bb|--------------------------------------|----|
Gb|-----------------3-3-3-3/---5-5-5-5/--|----|
Db|-0-----0-----0---3-3-3-3/---5-5-5-5/--|-0--|
Ab|-0-----0-----0---1-1-1-1/---3-3-3-3/--|-0--|
Db|-0-----0-----0------------------------|-0--|


Fill x1
eb|-----------------------------------------------------------|
Bb|-----------------------------------------------------------|
Gb|---------------------------3-3-3-3-3-3-3-3-----------------|
Db|-0-0-3p0-3h5-6-6-6-6-6-6---3-3-3-3-3-3-3-3-----------------|
Ab|-0-0-3p0-3h5-6-6-6-6-6-6---1-1-1-1-1-1-1-1--------3--------|
Db|-0-0-3p0-3h5-6-6-6-6-6-6--------------------0-3-5---5-3-5--|


Verse x1
eb|------------------------------------------------------|
Bb|------------------------------------------------------|
Gb|------------------------------------------------------|
Db|-0-0-3p0-3h5-6-6-6-6-6-6---0-0-3p0-3h5-6-6-6-6-3-3-3--|
Ab|-0-0-3p0-3h5-6-6-6-6-6-6---0-0-3p0-3h5-6-6-6-6-3-3-3--|
Db|-0-0-3p0-3h5-6-6-6-6-6-6---0-0-3p0-3h5-6-6-6-6-3-3-3--|

eb|-----------------------------------------------------------|
Bb|-----------------------------------------------------------|
Gb|---------------------------3-3-3-3-3-3-3-3-----------------|
Db|-0-0-3p0-3h5-6-6-6-6-6-6---3-3-3-3-3-3-3-3-----------------|
Ab|-0-0-3p0-3h5-6-6-6-6-6-6---1-1-1-1-1-1-1-1--------3--------|
Db|-0-0-3p0-3h5-6-6-6-6-6-6--------------------0-3-5---5-3-5--|


Chorus x2
Guitar 1
eb|-----------------------------------------------------------|
Bb|-15---15---15----10---------------15---15---15----10--13---|
Gb|-17b--17b--17b---12b14~14r12-10---17b--17b--17b---12b-15b--|
Db|-----------------------------------------------------------|
Ab|-----------------------------------------------------------|
Db|-----------------------------------------------------------|
Guitar 2
eb|--------------------------------------|----|
Bb|--------------------------------------|----|
Gb|-----------------3-3-3-3/---5-5-5-5/--|----|
Db|-0-----0-----0---3-3-3-3/---5-5-5-5/--|-0--|
Ab|-0-----0-----0---1-1-1-1/---3-3-3-3/--|-0--|
Db|-0-----0-----0------------------------|-0--|


Breakdown x4 (fades during the last one)
eb|-------------------------------------------------------|
Bb|-------------------------------------------------------|
Gb|-------------------------------------------------------|
Db|-0-0-0--0-0-0--0-0-0--0-3----0-0-0--0-0-0--0-0-0--0-5--|
Ab|-0-0-0--0-0-0--0-0-0--0-3----0-0-0--0-0-0--0-0-0--0-5--|
Db|-0-0-0--0-0-0--0-0-0--0-3----0-0-0--0-0-0--0-0-0--0-5--|

eb|------------------------------------------------------|
Bb|------------------------------------------------------|
Gb|------------------------3--5-5-5-5-5-5----------------|
Db|-0-0-0--0-0-0--0-0-0--0-3--5-5-5-5-5-5----------------|
Ab|-0-0-0--0-0-0--0-0-0--0-1--3-3-3-3-3-3-------3--------|
Db|-0-0-0--0-0-0--0-0-0--0----------------0-3-5---5-3-5--|
Tap to rate this tab
# A B C D E F G H I J K L M N O P Q R S T U V W X Y Z