Song name
# A B C D E F G H I J K L M N O P Q R S T U V W X Y Z

Bart Howard - Fly Me To The Moon tab

My first tab :)
And it's 100% right =]
Well I think so anyway!

----------------------------------------------------------------------|
-1--0--------------------1-----0--------------------------------------|
-------2--0--------0--2-----------2--0--------------------------------|
-------------3---------------------------3--2-------------------------|
----------------------------------------------------------------------|
----------------------------------------------------------------------|
Fly me to the moon and let me play among the stars,

----------------------------------------------------------------------|
----------------------------------------------------------------------|
-2--0-------------------2--1------------------------------------------|
-------3--2--0----2--3---------3--2--0--------------------------------|
----------------------------------------3-----------------------------|
----------------------------------------------------------------------|
let me see what spring is like on Jupiter and Mars.

----------------------------------------------------------------------|
-------------------1--0-----------------------------------------------|
--------2--2-------------0--------------------------------------------|
----0-----------------------------------------------------------------|
-4--------------------------------------------------------------------|
----------------------------------------------------------------------|
In other words, hold my hand,

----------------------------------------------------------------------|
----------------------------------------------------------------------|
---------------2--0---------------------------------------------------|
-------3--3----------3--2---------------------------------------------|
-2--3-----------------------------------------------------------------|
----------------------------------------------------------------------|
In other words, darling kiss me.

----------------------------------------------------------------------|
-1--0--------------------1-----0--------------------------------------|
-------2--0--------0--2-----------2--0--------------------------------|
-------------3---------------------------3--2-------------------------|
----------------------------------------------------------------------|
----------------------------------------------------------------------|
Fill my heart with song and let me sing for evermore,

----------------------------------------------------------------------|
----------------------------------------------------------------------|
-2--0-------------------2--1------------------------------------------|
-------3--2--0----2--3---------3--2--0--------------------------------|
----------------------------------------3-----------------------------|
----------------------------------------------------------------------|
You are all I long for, all I worship and adore.


----------------------------------------------------------------------|
-------------------1--0-----------------------------------------------|
--------2--2-------------0--------------------------------------------|
----0-----------------------------------------------------------------|
-4--------------------------------------------------------------------|
----------------------------------------------------------------------|
In other words, please be true,

----------------------------------------------------------------------|
----------------------------------------------------------------------|
-1--2-----------------------------------------------------------------|
-----------------0----------------------------------------------------|
-------3--3---3-----3-------------------------------------------------|
----------------------------------------------------------------------|
In other words, I love you.

----------------------------------------------------------------------|
-1--0--------------------1-----0--------------------------------------|
-------2--0--------0--2-----------2--0--------------------------------|
-------------3---------------------------3--2-------------------------|
----------------------------------------------------------------------|
----------------------------------------------------------------------|
Fly me to the moon and let me play among the stars,

----------------------------------------------------------------------|
----------------------------------------------------------------------|
-2--0-------------------2--1------------------------------------------|
-------3--2--0----2--3---------3--2--0--------------------------------|
----------------------------------------3-----------------------------|
----------------------------------------------------------------------|
let me see what spring is like on Jupiter and Mars.

----------------------------------------------------------------------|
-------------------1--0-----------------------------------------------|
--------2--2-------------0--------------------------------------------|
----0-----------------------------------------------------------------|
-4--------------------------------------------------------------------|
----------------------------------------------------------------------|
In other words, hold my hand,

----------------------------------------------------------------------|
----------------------------------------------------------------------|
---------------2--0---------------------------------------------------|
-------3--3----------3--2---------------------------------------------|
-2--3-----------------------------------------------------------------|
----------------------------------------------------------------------|
In other words, darling kiss me.


----------------------------------------------------------------------|
-1--0--------------------1-----0--------------------------------------|
-------2--0--------0--2-----------2--0--------------------------------|
-------------3---------------------------3--2-------------------------|
----------------------------------------------------------------------|
----------------------------------------------------------------------|
Fill my heart with song and let me sing for evermore,

----------------------------------------------------------------------|
----------------------------------------------------------------------|
-2--0-------------------2--1------------------------------------------|
-------3--2--0----2--3---------3--2--0--------------------------------|
----------------------------------------3-----------------------------|
----------------------------------------------------------------------|
You are all I long for, all I worship and adore.


-------------------------0----------------------------------------------|
-------------------1--0-------------------------------------------------|
--------2--2------------------------------------------------------------|
----0-------------------------------------------------------------------|
-4----------------------------------------------------------------------|
------------------------------------------------------------------------|
In other words, please be true,

----------------------------------------------------------------------|
-1--3------------0--3--1----------------------------------------------|
-------2--2-----------------------------------------------------------|
----------------------------------------------------------------------|
----------------------------------------------------------------------|
----------------------------------------------------------------------|
In other words, I love you!



Enjoy!
Tap to rate this tab
# A B C D E F G H I J K L M N O P Q R S T U V W X Y Z