Song name
# A B C D E F G H I J K L M N O P Q R S T U V W X Y Z

Baryonyx - Nosen tab

INTRO:
      C      D    Am   Am
e -------------------------
B --5-5-5--7-7-7-----------
G --5-5-5--7-7-7--5-5-5-5--
D --5-5-5--7-7-7--7-7-7-7-- x2
A ----------------7-7-7-7--
E -------------------------
      C      D    Am   Am      C      D      Am      Am
e -----------------------------------------------------------
B --5-5-5--7-7-7-------------5-5-5--7-7-7--------------------
G --5-5-5--7-7-7--5-5-5-5----5-5-5--7-7-7--5-5--7b(9)-5---5--
D --5-5-5--7-7-7--7-7-7-7----5-5-5--7-7-7--7-7----------7----
A ----------------7-7-7-7------------------7-7---------------
E -----------------------------------------------------------
      C      D    Am   Am      C      D      Am      Am
e --------------------------------------------------------------------
B --5-5-5--7-7-7-------------5-5-5--7-7-7-----------------------------
G --5-5-5--7-7-7--5-5-5-5----5-5-5--7-7-7--5-5--3/4-5-4---------------
D --5-5-5--7-7-7--7-7-7-7----5-5-5--7-7-7--7-7----------5/7-5-7-7~~~--
A ----------------7-7-7-7------------------7-7------------------------
E --------------------------------------------------------------------

VERSE:

     C      D    Am   Am      C      D      Am      Am
     Vorrei distruggere il mondo e farlo come dico io
e -------------------------------------------------------------
B --5-5-5--7-7-7--5---5-5-5----5-5-5--7-7-7--5---5-5-5---------
G --5-5-5--7-7-7--0---0-0-0----5-5-5--7-7-7--0---0-0-0---------
D --5-5-5--7-7-7--7---7-7-7----5-5-5--7-7-7--7---7-7-7---------
A ----------------7---7-7-7------------------7---7-7-7---------
E -------------------------------------------------------------

     C      D    Am   Am      C      D      Am      Am
     Vorrei rinascere in un luogo dove tutto é mio
e -------------------------------------------------------------
B --5-5-5--7-7-7--5---5-5-5----5-5-5--7-7-7--5---5-5-5---------
G --5-5-5--7-7-7--0---0-0-0----5-5-5--7-7-7--0---0-0-0---------
D --5-5-5--7-7-7--7---7-7-7----5-5-5--7-7-7--7---7-7-7---------
A ----------------7---7-7-7------------------7---7-7-7---------
E -------------------------------------------------------------

     C      D    Am   Am      C      D      Am      Am
         Precipitando in un'oscurità un vortice
e --------------------------------------------------------------------------
B -7b(9)-7s(9)-7s(9)-7-5-7-5---4-5-4-------7b(9)-5---7b(9)-5---7b(9)-5--5---
G ---------------------------7-------5/7-5---------7---------7---------7----
D --------------------------------------------------------------------------
A --------------------------------------------------------------------------
E --------------------------------------------------------------------------
  
  C      D    Am   Am      C      D      Am      Am
   un vuoto incancellabile che vive dentro me
e --------------------------------------------------
B ---7b(9)-7b(9)-7b(9)-7-5-7-5---4-5-4--------------
G -----------------------------7-------5/7----7-----
D --------------------------------------------------
A --------------------------------------------------
E --------------------------------------------------

CHORUS:

  C    C       D      D   F      F     D    D
 Se lo vuoi riuscirai a volare dentro ogni perché
e ------------------------------------------------
B -5-5-5-5-5---7-7-7-7-7--10-10-10-10--7-7-7-7-7--
G -5-5-5-5-5---7-7-7-7-7--10-10-10-10--7-7-7-7-7--
D -5-5-5-5-5---7-7-7-7-7--10-10-10-10--7-7-7-7-7--
A ------------------------------------------------
E ------------------------------------------------

  C    C       D      D   F      F     F    F
    prima o poi     tornerai      in te
e --------------------------------------------------
B -5-5-5-5-5---7-7-7-7-7--10-10-10-10--10-10-10-10--
G -5-5-5-5-5---7-7-7-7-7--10-10-10-10--10-10-10-10--
D -5-5-5-5-5---7-7-7-7-7--10-10-10-10--10-10-10-10--
A --------------------------------------------------
E --------------------------------------------------

INTRO:

      C      D    Am   Am
e -------------------------
B --5-5-5--7-7-7-----------
G --5-5-5--7-7-7--5-5-5-5--
D --5-5-5--7-7-7--7-7-7-7-- x2
A ----------------7-7-7-7--
E -------------------------
      C      D    Am   Am      C      D      Am      Am
e ---------------------------------------------------------
B --5-5-5--7-7-7-------------5-5-5--7-7-7------------------
G --5-5-5--7-7-7--5-5-5-5----5-5-5--7-7-7--5-5--7b9-5---5--
D --5-5-5--7-7-7--7-7-7-7----5-5-5--7-7-7--7-7--------7----
A ----------------7-7-7-7------------------7-7-------------
E ---------------------------------------------------------
      C      D    Am   Am      C      D      Am      Am
e -----------------------------------------------------------------
B --5-5-5--7-7-7-------------5-5-5--7-7-7--------------------------
G --5-5-5--7-7-7--5-5-5-5----5-5-5--7-7-7--5-5--3s4-5-4------------
D --5-5-5--7-7-7--7-7-7-7----5-5-5--7-7-7--7-7----------5s7-5-7-7--
A ----------------7-7-7-7------------------7-7---------------------
E -----------------------------------------------------------------


VERSE:

      C      D    Am   Am      C      D      Am      Am
     Vorrei distruggere il tempo e farlo come dico io
e -------------------------------------------------------
B -------------------------------------------------------
G --5-5-5--7-7-7----------------5-5-5--7-7-7-------------
D --5-5-5--7-7-7--7-7-7-7-7-----5-5-5--7-7-7--7-7-7-7-7--
A --3-3-3--5-5-5--7-7-7-7-7-----3-3-3--5-5-5--7-7-7-7-7--
E ----------------5-5-5-5-5-------------------5-5-5-5-5--
pm: ......................................................!

     C      D    Am   Am      C      D      Am      Am
     Vorrei rinascere in un luogo dove tutto é mio 
e -------------------------------------------------------
B -------------------------------------------------------
G --5-5-5--7-7-7----------------5-5-5--7-7-7-------------
D --5-5-5--7-7-7--7-7-7-7-7-----5-5-5--7-7-7--7-7-7-7-7--
A --3-3-3--5-5-5--7-7-7-7-7-----3-3-3--5-5-5--7-7-7-7-7--
E ----------------5-5-5-5-5-------------------5-5-5-5-5--
pm: ......................................................!

   C      D    Am   Am      C      D      Am      Am
   riesco a vedere tracce e moti che non finiranno mai
e ----------------------------------------------------
B --5-5-5--7-7-7-------------5-5-5--7-7-7-------------
G --5-5-5--7-7-7--5-5-5-5----5-5-5--7-7-7--5-5-5-5----
D --5-5-5--7-7-7--7-7-7-7----5-5-5--7-7-7--7-7-7-7----
A ----------------7-7-7-7------------------7-7-7-7----
E ----------------------------------------------------

   C      D    Am   Am      C      D      Am      Am
    lacune, rabbie, melodie eterne sparse in noi
e ----------------------------------------------------
B --5-5-5--7-7-7-------------5-5-5--7-7-7-------------
G --5-5-5--7-7-7--5-5-5-5----5-5-5--7-7-7--5-5-5-5----
D --5-5-5--7-7-7--7-7-7-7----5-5-5--7-7-7--7-7-7-7----
A ----------------7-7-7-7------------------7-7-7-7----
E ----------------------------------------------------

CHORUS:

  C    C       D      D   F      F     D    D
 Se lo vuoi riuscirai a volare dentro ogni perché
e ------------------------------------------------
B -5-5-5-5-5---7-7-7-7-7--10-10-10-10--7-7-7-7-7--
G -5-5-5-5-5---7-7-7-7-7--10-10-10-10--7-7-7-7-7--
D -5-5-5-5-5---7-7-7-7-7--10-10-10-10--7-7-7-7-7--
A ------------------------------------------------
E ------------------------------------------------

  C    C       D      D   F      F     F    F
    prima o poi     tornerai      in te
e --------------------------------------------------
B -5-5-5-5-5---7-7-7-7-7--10-10-10-10--10-10-10-10--
G -5-5-5-5-5---7-7-7-7-7--10-10-10-10--10-10-10-10--
D -5-5-5-5-5---7-7-7-7-7--10-10-10-10--10-10-10-10--
A --------------------------------------------------
E --------------------------------------------------

SOLO:
probably Antonio Morelli play in this way
 
          C               D            F              D   
e -------------------------------------------------------8-8-8-8-10-8---
B ---------------------------------7/10-8-8-10-10-10-10-----------------
G --3/5-5-7b(9)-7b(9)-7b(9)-7-5-5---------------------------------------
D ----------------------------------------------------------------------
A ----------------------------------------------------------------------
E ----------------------------------------------------------------------

          c               C            D               D      
e --0-5-3-0-0-5-3-0-0-5-3-0-0-5-3-0-0-5-3-0-0-5-3-0-0-5-3-0-----  x2
B --------------------------------------------------------------
G --------------------------------------------------------------
D --------------------------------------------------------------  <-- (This part is made very fast)
A --------------------------------------------------------------
E --------------------------------------------------------------

          F               F            F               F      
e ---10b(12)-10b(12)-10b(12)-10b(12)-10b(12)-10-8-10-10-10/15-15-15-----
B ----------------------------------------------------------------------
G ----------------------------------------------------------------------
D ----------------------------------------------------------------------
A ----------------------------------------------------------------------
E ----------------------------------------------------------------------

          C               C            D               D               
e --8p10-8p10-8p10-8p10-8-----8p10-8p10-8p10-8p10-8-------------
B ------------------------10------------------------10----------
G --------------------------------------------------------------
D --------------------------------------------------------------
A --------------------------------------------------------------
E --------------------------------------------------------------

          F               F            D               D      
e -10b(12)-10b(12)-10b(12)-10b(12)-10b(12)-10-8-10-10--10-8-------------
B -----------------------------------------------------------10-8-------
G -----------------------------------------------------------------9----
D ----------------------------------------------------------------------
A ----------------------------------------------------------------------
E ----------------------------------------------------------------------

          Am               C            D               Am      
e ----------------------------------------------------------------------
B ----------------------------------------------------------------------
G ------------------5-5-5-7b(9)-7b(9)-7b(9)r7-5-7-7-7-7b(9)r7-5---------
D --5/7-7-7-7-7h5h7----------------------------------------------7-7-7--
A ----------------------------------------------------------------------
E ----------------------------------------------------------------------

          Am               C            D               Am      
e ----------------------------------------------------------------------
B ----------------------------------------------------------------------
G ------------------5-5-5-7b(9)-7b(9)-7b(9)r7-5-7-7-7-7b(9)r7-5---------
D --5/7-7-7-7-7h5h7----------------------------------------------7-7-7--
A ----------------------------------------------------------------------
E ----------------------------------------------------------------------


          F            G                  
e -----------------------------------
B -----------------------------------
G -----------------------------------
D ---3-3-3---3-3----5-5-5---5-5------
A ---3-3-3---3-3----5-5-5---5-5------
E ---1-1-1---1-1----3-3-3---3-3------

BRIDGE:

e -----------------------------------------
B --s5~~--s7~~--5-----------5--------------
G --s5~~--s7~~--5-----------5--------------
D --s5~~--s7~~--5-7-7-7-7---5-7-7-7-7------
A ----------------7-7-7-7-----7-7-7-7------
E -----------------------------------------

e --------------------------------------------------------
B --s5~~--s7~~--5-----------5-----------------------------
G --s5~~--s7~~--5-----------5----------5-7-7b(9)r7-5------
D --s5~~--s7~~--5-7-7-7-7---5-7-7-7-7----------------7-5--
A ----------------7-7-7-7-----7-7-7-7---------------------
E --------------------------------------------------------

e -----------------------------------------
B --s5~~--s7~~--5-----------5--------------
G --s5~~--s7~~--5-----------5--------------
D --s5~~--s7~~--5-7-7-7-7---5-7-7-7-7------
A ----------------7-7-7-7-----7-7-7-7------
E -----------------------------------------

e --------------------------------------------------------
B --s5~~--s7~~--5-----------5-----------------------------
G --s5~~--s7~~--5-----------5----------5-7-7b(9)r7-5------
D --s5~~--s7~~--5-7-7-7-7---5-7-7-7-7----------------7-5--
A ----------------7-7-7-7-----7-7-7-7---------------------
E --------------------------------------------------------

     C     D        Am           Am
 E' tempo di cambiamenti di utopie e brividi 
e -----------------------------------------
B --s5~~--s7~~--5-----------5--------------
G --s5~~--s7~~--5-----------5--------------
D --s5~~--s7~~--5-7-7-7-7---5-7-7-7-7------
A ----------------7-7-7-7-----7-7-7-7------
E -----------------------------------------
     C     D        Am        Am
        E' tempo di cambiamenti... 
e ----------------------------------------
B --s5~~--s7~~----------------------------
G --s5~~--s7~~--5-5-5-5-5-5-5-5-----------
D --s5~~--s7~~--7-7-7-7-7-7-7-7-----------
A --------------7-7-7-7-7-7-7-7-----------
E --------------5-5-5-5-5-5-5-5-----------

CHORUS:

  C    C       D      D   F      F     D    D
 Se lo vuoi riuscirai a volare dentro ogni perché
e ------------------------------------------------
B -5-5-5-5-5---7-7-7-7-7--10-10-10-10--7-7-7-7-7--
G -5-5-5-5-5---7-7-7-7-7--10-10-10-10--7-7-7-7-7--
D -5-5-5-5-5---7-7-7-7-7--10-10-10-10--7-7-7-7-7--
A ------------------------------------------------
E ------------------------------------------------

  C    C       D      D   F      F     F    F
    prima o poi     tornerai      in te
e --------------------------------------------------
B -5-5-5-5-5---7-7-7-7-7--10-10-10-10--10-10-10-10--
G -5-5-5-5-5---7-7-7-7-7--10-10-10-10--10-10-10-10--
D -5-5-5-5-5---7-7-7-7-7--10-10-10-10--10-10-10-10--
A --------------------------------------------------
E --------------------------------------------------

  C    C       D      D   F      F     D    D
 Se lo vuoi riuscirai a volare dentro ogni perché
e ------------------------------------------------
B -5-5-5-5-5---7-7-7-7-7--10-10-10-10--7-7-7-7-7--
G -5-5-5-5-5---7-7-7-7-7--10-10-10-10--7-7-7-7-7--
D -5-5-5-5-5---7-7-7-7-7--10-10-10-10--7-7-7-7-7--
A ------------------------------------------------
E ------------------------------------------------

  C    C       D      D   F      F     F    F
    prima o poi     tornerai      in te
e --------------------------------------------------
B -5-5-5-5-5---7-7-7-7-7--10-10-10-10--10-10-10-10--
G -5-5-5-5-5---7-7-7-7-7--10-10-10-10--10-10-10-10--
D -5-5-5-5-5---7-7-7-7-7--10-10-10-10--10-10-10-10--
A --------------------------------------------------
E --------------------------------------------------

OUTRO:

          C               C            D               D               
e --8p10-8p10-8p10-8p10-8-----8p10-8p10-8p10-8p10-8-------------
B ------------------------10------------------------10----------
G --------------------------------------------------------------
D --------------------------------------------------------------
A --------------------------------------------------------------
E --------------------------------------------------------------

          Am              Am           Am              Am      
e ----10b(12)-10b(12)-10b(12)-10b(12)r10-8----------------------
B ------------------------------------------10-10-10~-----------
G --------------------------------------------------------------
D --------------------------------------------------------------
A --------------------------------------------------------------
E --------------------------------------------------------------

          C               C            D               D      
e --0-5-3-0-0-5-3-0-0-5-3-0-0-5-3-0-0-5-3-0-0-5-3-0-0-5-3-0-----  x2
B --------------------------------------------------------------
G --------------------------------------------------------------
D --------------------------------------------------------------  <-- (This part is made very fast)
A --------------------------------------------------------------
E --------------------------------------------------------------

          Am              Am           Am              Am      
e ----10b(12)-10b(12)-10b(12)-10b(12)r10-8----------------------
B ------------------------------------------10-10-10~-----------
G --------------------------------------------------------------
D --------------------------------------------------------------
A --------------------------------------------------------------
E --------------------------------------------------------------

      C      D      Am
e -------------------------
B --5-5-5--7-7-7-----------
G --5-5-5--7-7-7--5-5-5-5--
D --5-5-5--7-7-7--7-7-7-7--
A ----------------7-7-7-7--
E -------------------------
Tap to rate this tab
# A B C D E F G H I J K L M N O P Q R S T U V W X Y Z