Song name
# A B C D E F G H I J K L M N O P Q R S T U V W X Y Z

Basca - Decision tab

Intro:
1|---------------------------------------|
2|---------------------------------------|
3|---------------------------------------|
4|---------------------------------------|
5|--12/11/9/5----12/11/9/7---12/11/8/9-9-|
6|--10/9-/7/3----10/9-/7/5---10/9-/6/7-7-|


1|---------------------------------------|
2|---------------------------------------|
3|---------------------------------------|
4|---------------------------------------|
5|---7/9--7/9--9-9-----------------------|
6|---5/7--5/7--7-7-----------------------|


1|---------------------------------------|
2|---------------------------------------|
3|---------------------------------------|
4|---------------------------------------|
5|--12/11/9/5----12/11/9/7---12/11/8/9-9-|
6|--10/9-/7/3----10/9-/7/5---10/9-/6/7-7-|


1|---------------------------------------|
2|---------------------------------------|
3|---------------------------------------|
4|---------------------------------------|
5|---7/9--7/9--9-9-----------------------|
6|---5/7--5/7--7-7-----------------------|

Verso

1|---------------------------------------|
2|---------------------------------------|
3|---------------------------------------|
4|---------------------------------------|
5|-9-9-9-9-9-9--9-9-9-9-9-9--10-9-10-9---|
6|-7-7-7-7-7-7--7-7-7-7-7-7--------------|
coro
1|---------------------------------------|
2|---------------------------------------|
3|---------------------------------------|
4|---------------------------------------|
5|-9-9-9-9-9--7-7-7-7-7-7/9---10-9-10-9--|
6|-7-7-7-7-7--5-5-5-5-5-5/7--------------|

Verso

1|---------------------------------------|
2|---------------------------------------|
3|---------------------------------------|
4|---------------------------------------|
5|-9-9-9-9-9-9--9-9-9-9-9-9--10-9-10-9---|
6|-7-7-7-7-7-7--7-7-7-7-7-7--------------|

Tap to rate this tab
# A B C D E F G H I J K L M N O P Q R S T U V W X Y Z