Song name
# A B C D E F G H I J K L M N O P Q R S T U V W X Y Z

Basement - 1104 Porter St tab

Song: 1104 Porter St.
Band: Basement
Album: Songs About the Weather

Half Step Down Tuning.

Figure strum patterns yourself.

Intro:
Guitar 1:
----------------------|
----------------------|
--5-------------------|
--5----2----5----3----|
--3----2----5----3----|
-------0----3----1----|

Guitar 2:
-------------------------------------|
-------------------------------------|
--7/9----7/9----14\12----12/9--9\7---|
-------------------------------------|
--5/7----5/7----12\10----10\7--7\5---|
-------------------------------------|

-----------------------------|
-----------------------------|
--7/9----7/9----9\5----7\5---|
-----------------------------|
--5/7----5/7----7\3----5\3---|
-----------------------------|


"There's something different about the air in this town"
Guitar 1:
----------------------|
----------------------|
----------------------|
--2----3----2----3----|
--2----3----2----3----|
--0----1----0----1----|


"Tonight, three thousand miles from home"
----------------------|---------xxx------|
----------------------|---------xxx------|
-----------5----------|---------xxx------|
--3--------5----5-----|--3-33---xxx---3--|
--3--------3----5-----|--3-33---xxx---3--|
--1-------------3-----|--1-11---xxx---1--|


"I'm Home"
Guitar 1:
----------------------|
----------------------|
--5-------------------|
--5----2----5----3----|
--3----2----5----3----|
-------0----3----1----|

Guitar 2:
-------------------------------------|
-------------------------------------|
--7/9----7/9----14\12----12/9--9\7---|
-------------------------------------|
--5/7----5/7----12\10----10\7--7\5---|
-------------------------------------|

-----------------------------|
-----------------------------|
--7/9----7/9----9\5----7\5---|
-----------------------------|
--5/7----5/7----7\3----5\3---|
-----------------------------|


Outro:
Guitar 1:
---------------------------------|
---------------------------------|
-----4------4------4------4------|
-------5------5------5------5----|
-----------------------3---------|
--0------3------1----------------|

Guitar 2: (Harmonics)
---------------------------7----|
---------7-------------7--------|
----5------7------5------7------|
--5-------------5---------------|
--------------------------------|
--------------------------------|
Tap to rate this tab
 
# A B C D E F G H I J K L M N O P Q R S T U V W X Y Z