Song name
# A B C D E F G H I J K L M N O P Q R S T U V W X Y Z

Basement - White Elephant tab

Song: White Elephant
Band: Basement
Album: Songs About The Weather


Tuning: Half Step Down

Listen for the timings

Intro/Verse:
e----------------------------------|
B----------------------------------|
G----------6-------2-----6---------|
D----------4-------2-----x---------|
A----------5-------0-----4---------|
E----------------------------------|

Chorus:
e---------------------------------|
B---------------------------------|
G----7------9-------------2-------|
D----7------9-------4-----2-------|
A----5------7-------4-----0-------|
E-------------------2-------------|

Verse 2: 
Hold first note a couple times, then play intro/verse again
e----------------------------------|
B----------------------------------|
G----------6-------2-----6---------|
D----------4-------2-----x---------|
A----------5-------0-----4---------|
E----------------------------------|

Chorus:
e---------------------------------|
B---------------------------------|
G----7------9-------------2-------|
D----7------9-------4-----2-------|
A----5------7-------4-----0-------|
E-------------------2-------------|

Outro:
Same as intro/verse again with lead part

rhythm   x4
e----------------------------------|
B----------------------------------|
G----------6-------2-----6---------|
D----------4-------2-----x---------|
A----------5-------0-----4---------|
E----------------------------------|

lead   x2
e--------------------------------------------------------|
B-----------------------------------------------5--------|
G------------6--6-------------6--7--6-----4------6-------|
D---4-h-7----------4-h-7--------------7------------------|
A--------------------------------------------------------|
E--------------------------------------------------------|

e--------------------------------------------------------|
B--------------------------------------------------------|
G------------6--6-------------6--7--6-----4--------------|
D---4-h-7----------4-h-7--------------7-----7--4---------|
A--------------------------------------------------------|
E--------------------------------------------------------|

e--------------------------------------------------------|
B-----------------------------------------------5--------|
G------------6--6-------------6--7--6-----4------6-------|
D---4-h-7----------4-h-7--------------7------------------|
A--------------------------------------------------------|
E--------------------------------------------------------|

e----------------------------------|
B----------------------------------|
G------------6--6-----6--6---------|
D---4-h-7----------4--------7--4~--|
A----------------------------------|
E----------------------------------|

Tap to rate this tab
 
# A B C D E F G H I J K L M N O P Q R S T U V W X Y Z