Song name
# A B C D E F G H I J K L M N O P Q R S T U V W X Y Z

Basement - Ellipses tab

-----------------------------------------------------------------------------
			     ELLIPSES - Basement
-----------------------------------------------------------------------------
Tabbed by: Mean Mr Mustard
Email: Gotchristo@comcast.net

Tuning: Half Step Down

Was listening to this song and tried figuring it out. This is what I got, should be 
fairly accurate. I know I wrote it for three guitars, but tracks 2 and 3 could definitely be 
played together, they just sound like they're panned differently on the album.

Section 1

eb|-----------------------------0----|---------0---------------0------|
Bb|-----0-2-----0-2-----0-2------0-2-|-----0-2---0-2-------0-2---0-2--|
Gb|---2-------2-------2-------2------|---2-----------2---2----------2-|
Db|-0-------0-------0-------0--------|-2---------------2--------------|
Ab|----------------------------------|--------------------------------|
Eb|----------------------------------|--------------------------------|
  |
eb|----------------------------------|--------------------------------|
Bb|-----[7]------------[7]-----------|--------------------------------|
Gb|---[7]------------[7]-------------|--------------------------------|
Db|-[7]------------[7]---------------|--------------------------------|
Ab|----------------------------------|-[7]----------------------------|
Eb|----------------------------------|--------------------------------|
  |
eb|----------------------------------|--------------------------------|
Bb|----------------------------------|-----------------7---10---5-----|
Gb|----------------------------------|--------------------------------|
Db|----------------------------------|-----------------7---11---7-----|
Ab|----------------------------------|--------------------------------|
Eb|----------------------------------|--------------------------------|
*Tracks 2 and 3 come in on the 3rd time.


Section 2

eb|---------------------------------|---------------------------------|
Bb|---------------------------------|---------------------------------|
Gb|-7-7-7-7-7-7-7-7-6-6-6-6-6-6-6-6-|-2-2-2-2-2-2-2-2-2-2-2-2-2-2-2-2-|
Db|-7-7-7-7-7-7-7-7-7-7-7-7-7-7-7-7-|-2-2-2-2-2-2-2-2-2-2-2-2-2-2-2-2-|
Ab|-5-5-5-5-5-5-5-5-4-4-4-4-4-4-4-4-|-0-0-0-0-0-0-0-0-0-0-0-0-0-0-0-0-|
Eb|---------------------------------|---------------------------------|
  |
eb|----------------------------------|---------------------------------|
Bb|----------------------------------|(10)-----------------------------|
Gb|-6-7-9------------6-7-9-----------|-6-7-9---------------------------|
Db|-------7~~~~~~----------7~~~~~~---|-------7~~~~~~-------------------|
Ab|----------------------------------|---------------------------------|
Eb|----------------------------------|---------------------------------|
  |
eb|----------------------------------|--------------------------------|
Bb|----------------------------------|-----------------7---10---5-----|
Gb|----------------------------------|--------------------------------|
Db|----------------------------------|-----------------7---11---7-----|
Ab|----------------------------------|--------------------------------|
Eb|----------------------------------|--------------------------------|
*The (10) on track 2 is played like every four times instead of the 6


Just play each section around 8 times and it fades out during section 2
Tap to rate this tab
# A B C D E F G H I J K L M N O P Q R S T U V W X Y Z