Song name
# A B C D E F G H I J K L M N O P Q R S T U V W X Y Z

Basement - Yoke Acoustic tab

Basement - Yoke (acoustic)
http://www.youtube.com/watch?v=IugAPuB_Zq8

This is my first tab, feel free to send me any corrections.
Refer to the video for the strumming patterns.

Intro/Verse 
D#|----------------|
A#|----------------|
F#|----0---0---0---|
C#|----9---5---4---|   (Keep repeating)
G#|---10---7---5---|
C#|---10---7---5---|
(Work out strumming pattern from the video)
 
Gasping for air, choking on my indecision,
hide me in my room and forget me.
I'm sorry, if you want to know the truth


Chorus
D#|----------0---------------0-------0-----|
A#|----------1---0-----------1---0---1---0-|
F#|------0---0---2-------0---0---2---0---2-|
C#|--2---4---2---2---2---4---2---2---2---2-|
G#|--2---5---3---0---2---5---3---0---3---0-|
C#|--2---5-----------2---5-----------------|

This is me against the world.


Verse 2

D#|----------------|
A#|----------------|
F#|----0---0---0---|
C#|----9---5---4---|   (Keep repeating)
G#|---10---7---5---|
C#|---10---7---5---|
(Work out strumming pattern from the video)

Is my mother happy? Is my father proud?
Hide me in my room, but forgive me.


Chorus

D#|----------0---------------0-------0-----|
A#|----------1---0-----------1---0---1---0-|
F#|------0---0---2-------0---0---2---0---2-|
C#|--2---4---2---2---2---4---2---2---2---2-|
G#|--2---5---3---0---2---5---3---0---3---0-|
C#|--2---5-----------2---5-----------------|

This is me against the world.

Outro

D#|-----------|
A#|-----------|
F#|----0---0--|
C#|----9---5--|   
G#|---10---7--|
C#|---10---7--|
Tap to rate this tab
# A B C D E F G H I J K L M N O P Q R S T U V W X Y Z