Song name
# A B C D E F G H I J K L M N O P Q R S T U V W X Y Z

Basement - Comfort tab

Basement - Comfort
jjjddd

Drop C#

clean

+ = harmonic

eb|----------------------------------------|
Bb|------0---------------------------0-0---|
Gb|-x-x--7--7-7-7--7---x--11\9-9-9\4-4-4---|
Db|-x-x------------5+--x-------------------|x4
Ab|-x-x--5--5-5-5--5+--x--9-\7-7-7\2-2-2---|
Db|------0--0-0-0--5+--x-------------------|


eb|----------------------------|
Bb|----------------------------|
Gb|-4-4-4-4-4-4/6-6-6-6-6-6-6--|
Db|----------------------------|x3
Ab|-2-2-2-2-2-2/4-4-4-4-4-4-4--|
Db|-0-0-------------0-0---0----|

eb|-----------------------|
Bb|-----------------------|
Gb|-6--6-6/11-11\9~~~~----|
Db|-----------------------|
Ab|-4--4-4/9--9-\7~~~~----|
Db|-----------------------|


drums come in


play twice before lyrics start
eb|----------------------------------------|      |lyrics|
Bb|------0---------------------------0-0---|    pick me up
Gb|-x-x--7--7-7-7--7---x--11\9-9-9\4-4-4---|    put me on your shoulders
Db|-x-x------------5+--x-------------------|x3  sing to me
Ab|-x-x--5--5-5-5--5+--x--9-\7-7-7\2-2-2---|    to help me get to sleep
Db|------0--0-0-0--5+--x-------------------|


eb|----------------------------|     |lyrics|
Bb|----------------------------|    the picture frame
Gb|-4-4-4-4-4-4/6-6-6-6-6-6-6--|    has seen far better days
Db|----------------------------|x3
Ab|-2-2-2-2-2-2/4-4-4-4-4-4-4--|
Db|-0-0-------------0-0---0----|

eb|-----------------------|       |lyrics|
Bb|-----------------------|     but on the wall its going to stay
Gb|-6--6-6/11-11\9~~~~----|
Db|-----------------------|
Ab|-4--4-4/9--9-\7~~~~----|
Db|-----------------------|



RIP BASEMENT
Tap to rate this tab
 
# A B C D E F G H I J K L M N O P Q R S T U V W X Y Z