Song name
# A B C D E F G H I J K L M N O P Q R S T U V W X Y Z

Basement - Control tab

basement - control 
jjjddd

Drop C#

intro/verse [play 4 times before lyrics start]             |lyrics|
eb|----------------------------------------------------|   fear
Bb|----------------------------------------------------|   swallow me
Gb|----------------------------------------------------|   whole
Db|----------------------------------------------------|   life
Ab|-----5-----5-----5-----5-----5--9\7-7-7/10-10-10\5--|   help me
Db|-4-4---4-4---4-4---4-4---4-4----7\5-5-5/8--8--8-\4--|   take
                                                           control 
chorus
eb|--------------------------------------|
Bb|--------------------------------------|  |lyrics|
Gb|--------------------------------------|  feel safe
Db|------------------5~~~--7~~~~--0~~~~--|  fly straight
Ab|-5~~~~~---2~~~~~--3~~~--5~~~~--0~~~~--|
Db|-3~~~~~---2~~~~~--3~~~--5~~~~--0~~~~--|

on the last repeat it goes
eb|---------------------------|
Bb|---------------------------|
Gb|---------------------------|
Db|---------------------------|
Ab|-5~~~~~---2~~~~~---0~~~~~--|
Db|-3~~~~~---2~~~~~---0~~~~~--|


eb|----------------------------------------------------|   
Bb|----------------------------------------------------|
Gb|----------------------------------------------------|
Db|----------------------------------------------------| repeat til end
Ab|-----5-----5-----5-----5-----5--9\7-7-7/10-10-10\5--|
Db|-4-4---4-4---4-4---4-4---4-4----7\5-5-5/8--8--8-\4--|



RIP BASEMENT
Tap to rate this tab
# A B C D E F G H I J K L M N O P Q R S T U V W X Y Z