Song name
# A B C D E F G H I J K L M N O P Q R S T U V W X Y Z

Basement - Bad Apple tab

Basement - Bad Apple
jjjddd

Drop C#

the start is just drum and bass, guitar comes in at 0:13


verse [play 4x before lyrics start]
eb|-----------------------------|    |lyrics|
Bb|-----------------------------|   bad apple
Gb|-----------------------------|   why do i want more?
Db|--9-9--9-9-9--6--6-6--6-6-6--|x4 skin so sweet
Ab|--7-7--7-7-7--4--4-4--4-4-4--|   but youre rotten to the core
Db|--7-7--7-7-7--4--4-4--4-4-4--|

chorus
eb|-----------------------------|
Bb|--5------5-------------------|     |lyrics|
Gb|--4------4-------------------|    to the core 
Db|--2------2------6--6-6--6-6--|x3  to the core
Ab|--2------2------4--4-4--4-4--|
Db|--2------2------4--4-4--4-4--|

eb|----------------------------------|
Bb|----------------------------------|   |lyrics|
Gb|----------------------------------| i never learned to truly burn
Db|-7-7-7-7-6-6-6-6-7-7-7-7-6-6-6-6--| bridges made in darker days
Ab|-5-5-5-5-5-5-5-5-5-5-5-5-5-5-5-5--|
Db|-0-0-0-0-0-0-0-0-0-0-0-0-0-0-0-0--|

verse [play 4x before lyrics start]
eb|-----------------------------|    |lyrics|
Bb|-----------------------------|   bad apple
Gb|-----------------------------|   why do i feel the need
Db|--9-9--9-9-9--6--6-6--6-6-6--|x4 to touch you
Ab|--7-7--7-7-7--4--4-4--4-4-4--|   when i know you are not clean
Db|--7-7--7-7-7--4--4-4--4-4-4--|


chorus
eb|-----------------------------|
Bb|--5------5-------------------|     |lyrics|
Gb|--4------4-------------------|    to the core 
Db|--2------2------6--6-6--6-6--|x3  to the core
Ab|--2------2------4--4-4--4-4--|
Db|--2------2------4--4-4--4-4--|

eb|----------------------------------|
Bb|----------------------------------|   |lyrics|
Gb|----------------------------------| i never learned to truly burn
Db|-7-7-7-7-6-6-6-6-7-7-7-7-6-6-6-6--| bridges made in darker days
Ab|-5-5-5-5-5-5-5-5-5-5-5-5-5-5-5-5--|
Db|-0-0-0-0-0-0-0-0-0-0-0-0-0-0-0-0--|


bridge
eb|-------------------------------------------------------|
Bb|-------------------------------------------------------|
Gb|-11111111-13-1414141414141414-1313131313-111111111111--|
Db|-------------------------------------------------------|x4
Ab|-9-9-9-9--11-1212121212121212-1111111111-9-9-9-9-9-9---|
Db|-0-0-0-0--0--0-0-0-0-0-0-0-0--0-0-0-0-0--0-0-0-0-0-0---|


chorus
eb|-----------------------------|
Bb|--5------5-------------------|     |lyrics|
Gb|--4------4-------------------|    to the core 
Db|--2------2------6--6-6--6-6--|x8  to the core
Ab|--2------2------4--4-4--4-4--|
Db|--2------2------4--4-4--4-4--|


eb|-----------------------------|
Bb|--5~~~~----------------------|
Gb|--4~~~~----------------------|
Db|--2~~~~----------------------|
Ab|--2~~~~----------------------|
Db|--2~~~~----------------------|


RIP BASEMENT
Tap to rate this tab
# A B C D E F G H I J K L M N O P Q R S T U V W X Y Z