Song name
# A B C D E F G H I J K L M N O P Q R S T U V W X Y Z

Basement - Wish tab

Basement - Wish
jjjddd


Drop C#

. = mute strings

intro
(rhythm guitar)
eb|---------------------------2.-------------------------|
Bb|-3-------------------------3.-------------------------|
Gb|-2-------------------------0.-------------------------|
Db|-0-------------------------0.-------------------------|
Ab|-0----------------------------------------------------|
Db|-0----------------------------------------------------|

(lead guitar)
eb|------------------------------------------------------|
Bb|------------------------------------------------------|
Gb|-7-7-7b-7-7b-7b-7-7b-5-5-5--7-7-7b-7-7b-7b-7-7b-5-5-5-|
Db|---------------------2-2-2----------------------2-2-2-|
Ab|-5-5-5b-5-5b-5b-5-5b-3-3-3--5-5-5b-5-5b-5b-5-5b-3-3-3-|
Db|-0-0-0--0-0--0--0-0---------0-0-0--0-0--0--0--0-------|

(rhythm guitar)                                                      repeat whole thing x3
eb|----------------------------------------------------------|
Bb|-3--------------------------------------------------------|
Gb|-2------------------------3-3-3-------5-5-5---------------|
Db|-0------------------------3-3-3-3-3-3-5-5-5-5-5-5-5-3-3-3-|
Ab|-0------------------------1-1-1-3-3-3-3-3-3-5-5-5-5-3-3-3-|
Db|-0------------------------------3-3-3-------5-5-5-5-3-3-3-|

(lead guitar)
eb|----------------------------------------------------------|
Bb|----------------------------------------------------------|
Gb|7-7-7b-7-7b-7b-7-7b-5-5-5-3-3-3-------5-5-5---------------|
Db|--------------------2-2-2-3-3-3-3-3-3-5-5-5-5-5-5-5-3-3-3-|
Ab|5-5-5b-5-5b-5b-5-5b-3-3-3-1-1-1-3-3-3-3-3-3-5-5-5-5-3-3-3-|
Db|0-0-0--0-0--0--0-0--------------3-3-3-------5-5-5-5-3-3-3-|


pre verse
(rhythm guitar)
   plays once and rings out over the lead
eb|----------------------------------------|-0----------|
Bb|----------------------------------------|-----3------|
Gb|-2--------------------------------------|----------2-| play this over the 
Db|-0--------------------------------------|------------| 3rd repeat of lead
Ab|-0--------------------------------------|------------|
Db|-0--------------------------------------|------------|

(lead guitar)
eb|----------------------------|
Bb|----------------------------|
Gb|-5/7-7-7--7-7--7-7-7\5-5-5--|
Db|----------------------------| x3
Ab|-3/5-5-5--5-5--5-5-5\3-3-3--|
Db|----------------------------|



verse   [play 4 times before lyrics start]
(rhythm)
eb|----------------------------|-----------------|
Bb|----------------------------|-----------------|
Gb|-7--7--7-7--7-7--7--5-5-5-5-|-3-3-3-3-5-5-5-5-|          |lyrics|
Db|----------------------------|-3-3-3-3-5-5-5-5-|      the stars and me were speaking
Ab|-5--5--5-5--5-5--5--3-3-3-3-|-1-1-1-1-3-3-3-3-|      they told me you were leaving
Db|-0--0--0-0--0-0--0--0-0-0-0-|-----------------|      if jupiter is moving
(lead)                      x3    [4th repeat]      x2  then maybe you should stay
eb|----------------------------|-----------------|
Bb|----------------------------|-----------------|      heaven doesnt know me
Gb|-5/11-11-11b-11-7-7-7-5-5-5-|-3-3-3-3-5-5-5-5-|      as much as you have shown me
Db|----------------------------|-3-3-3-3-5-5-5-5-|      your happiness is happy
Ab|-3/9--9--9b--9--5-5-5-3-3-3-|-1-1-1-1-3-3-3-3-|      my envy is in rage
Db|----------------------------|-----------------|


pre chorus
eb|--------------------------------------------|     |lyrics|
Bb|--------------------------------------------|    turn low, the radio
Gb|--------------------------------------------|    silence resume again
Db|-3-3------3-3----0--3-3-------5-5-5-5-5b-5--|x4  fly high, the brightest light
Ab|-3-3---5--3-3----0--3-3----5--5-5-5-5-5b-5--|    dont let me put you out
Db|-3-3--x---3-3--x-0--3-3---x---5-5-5-5-5b-5--|


chorus
eb|----------------------------------------------|
Bb|--3--3--3-3--3-3--3-3-3-----------------------|     |lyrics|
Gb|--2--2--2-2--2-2--2-2-2--5--5--5-5--7-7--7--7-|    green eyes on a blue eyed child
Db|--0--0--0-0--0-0--0-0-0--3--3--3-3--5-5--5--5-|x4  please can you stay a while
Ab|--0--0--0-0--0-0--0-0-0--3--3--3-3--5-5--5--5-|
Db|--0--0--0-0--0-0--0-0-0--3--3--3-3--5-5--5--5-|


(rhythm)
eb|----------------------------|
Bb|----------------------------|
Gb|-7--7--7-7--7-7--7--5-5-5-5-|
Db|----------------------------|
Ab|-5--5--5-5--5-5--5--3-3-3-3-|
Db|-0--0--0-0--0-0--0--0-0-0-0-|
(lead)                             x4
eb|----------------------------|
Bb|----------------------------|
Gb|-5/11-11-11b-11-7-7-7-5-5-5-|
Db|----------------------------|
Ab|-3/9--9--9b--9--5-5-5-3-3-3-|
Db|----------------------------|

(rhythm)
eb|------------------------------------------------------|
Bb|-3-------------------------3--------------------------|
Gb|-2-------------------------2--------------------------|
Db|-0-------------------------0--------------------------|
Ab|-0-------------------------0--------------------------|
Db|-0-------------------------0--------------------------|

(rhythm)
eb|------------------------------------------------------|
Bb|------------------------------------------------------|
Gb|------------------------------------------------------|
Db|-3-------------------5------------------7-------------|
Ab|-1-------------------3------------------5-------------|
Db|------------------------------------------------------|
(lead) 
eb|-----------0-------------------0----------------0-----|
Bb|-------3------3------------3-------3----------3---3---|
Gb|------------------------------------------------------|
Db|------------------------------------------------------|
Ab|------------------------------------------------------|
Db|------------------------------------------------------|

(rhythm)
eb|----------------------------|
Bb|-3--------------------------|
Gb|-2--------------------------|
Db|-0--------------------------|
Ab|-0--------------------------|       |lyrics|
Db|-0--------------------------|     maybe ill wait
(lead)                            x2 until my thoughts about you change
eb|----------------------------|     and the love...
Bb|----------------------------|
Gb|----------10-10-------10----|
Db|--10/12-12-----12--12---12--|
Ab|----------------------------|
Db|----------------------------|

(rhythm)
eb|------------------------------------------------------|
Bb|------------------------------------------------------|
Gb|------------------------------------------------------|   |lyrics|
Db|-3-------------------5------------------7-------------|  ...that i once had returns again
Ab|-1-------------------3------------------5-------------|
Db|------------------------------------------------------|
(lead) 
eb|-----------0-------------------0----------------0-----|
Bb|-------3------3------------3-------3----------3---3---|
Gb|------------------------------------------------------|
Db|------------------------------------------------------|
Ab|------------------------------------------------------|
Db|------------------------------------------------------|



this is a long build up part so im not gonna tab it exact

(lead) lead just keeps repeating this 
with subtle changes here and there
eb|----------------------------|
Bb|----------------------------|
Gb|----------10-10-------10----|
Db|--10/12-12-----12--12---12--|
Ab|----------------------------|
Db|----------------------------|

(rhythm) figure out the measures by ear
eb|------------------------------------------------------|
Bb|------------------------------------------------------|
Gb|------------------------------------------------------|
Db|------------------------------------------------------|
Ab|------------------------------------------------------|
Db|-0-0-0-0-0-0-0-0-0-0-0-0-0-0-0-0-0-0-0-0-0-0-0-0-0-0-0|
    * * * * * * * * * * * * * * * * * * * * * * * * * * *
eb|---------------------------------|                            x2.5
Bb|---------------------------------|
Gb|---------------------------------|
Db|---------------------------------|
Ab|-1-1-1-------3-3-3---------------|
Db|-------3-3-3-------5-5-5-5-3-3-3-|
    * * * * * * * * * * * * * * * *

after the build up everything gets loud at 4:16
eb|----------------------------------|
Bb|----------------------------------|
Gb|-3-3-3-------5-5-5----------------|
Db|-3-3-3-3-3-3-5-5-5-5-5-5-5-3-3-3--|x3
Ab|-1-1-1-3-3-3-3-3-3-5-5-5-5-3-3-3--|
Db|-------3-3-3-------5-5-5-5-3-3-3--|

end finale crescendo
eb|-------------------------------------|
Bb|-------------------------------------|
Gb|-7-7-7-7-7-7-7-7-7-5-5-5-5-5-5-5-5-5-|
Db|-------------------------------------|x4
Ab|-5-5-5-5-5-5-5-5-5-3-3-3-3-3-3-3-3-3-|
Db|-0-0-0-0-0-0-0-0-0-0-0-0-0-0-0-0-0-0-|

eb|---------|
Bb|---------|
Gb|----7----|
Db|---------|
Ab|----5----|
Db|----0----|



RIP BASEMENT
Tap to rate this tab
 
# A B C D E F G H I J K L M N O P Q R S T U V W X Y Z