Song name
# A B C D E F G H I J K L M N O P Q R S T U V W X Y Z

Basement - Black tab

basement - black
jjjddd

Drop C#

 [play 8 times before lyrics start]
eb|--------------------------------|    |lyrics|
Bb|--------------------------------|   i tell lies
Gb|------3----3---------2-------2--|   if i didnt youd be horrified
Db|--------------------------------|x8 id rather die
Ab|--------------------------------|   than have you find out what im trying to hide
Db|--2h4----4----2h4--4-----4-4----|


eb|----------------------------------------------------|
Bb|----------------------------------------------------|  |lyrics|
Gb|----------------------------------------------------| i cant escape
Db|-2--2-2-2--5--5-5--5-5-5--4--4-4-4--7--7-7--7-7-7---| the walls ive made
Ab|-2--2-2-2--5--5-5--5-5-5--4--4-4-4--7--7-7--7-7-7---|
Db|-2--2-2-2--5--5-5--5-5-5--4--4-4-4--7--7-7--7-7-7---|

eb|--------------------------|
Bb|--------------------------|   |lyrics|
Gb|--------------------------|  surrounding....
Db|-2--2-2-2--5--5-5--5-5-5--|
Ab|-2--2-2-2--5--5-5--5-5-5--|
Db|-2--2-2-2--5--5-5--5-5-5--|

eb|---------------0----------|    |lyrics|
Bb|---------------0----------|   ...me
Gb|---------------0----------|
Db|---------------0----------|x4 [last time]
Ab|-2h4-4-4-4-4-4------------|   surrounding
Db|-2h4-4-4-4-4-4------------|
        * * * * * 

 [play 4 times before lyrics start]
eb|--------------------------------|    |lyrics|
Bb|--------------------------------|   underground
Gb|------3----3---------2-------2--|   where creatures replace sight with sound
Db|--------------------------------|x8 leave me be
Ab|--------------------------------|   the darkness here is comforting
Db|--2h4----4----2h4--4-----4-4----|


eb|----------------------------------------------------|
Bb|----------------------------------------------------|  |lyrics|
Gb|----------------------------------------------------| i cant escape
Db|-2--2-2-2--5--5-5--5-5-5--4--4-4-4--7--7-7--7-7-7---| the walls ive made
Ab|-2--2-2-2--5--5-5--5-5-5--4--4-4-4--7--7-7--7-7-7---|
Db|-2--2-2-2--5--5-5--5-5-5--4--4-4-4--7--7-7--7-7-7---|

eb|--------------------------|
Bb|--------------------------|   |lyrics|
Gb|--------------------------|  containing...
Db|-2--2-2-2--5--5-5--5-5-5--|
Ab|-2--2-2-2--5--5-5--5-5-5--|
Db|-2--2-2-2--5--5-5--5-5-5--|

eb|---------------0----------|    |lyrics|
Bb|---------------0----------|   ...me
Gb|---------------0----------|
Db|---------------0----------|x4 [last time]
Ab|-2h4-4-4-4-4-4------------|   containing
Db|-2h4-4-4-4-4-4------------|
        * * * * * 

repeat these parts until fade

(rhythm guitar)
eb|----------------------------------|
Bb|----------------------------------|   |lyrics|
Gb|----------------------------------|  containing
Db|----------------------------------|
Ab|-2h4-4-4-4-4-2h4-4-4-4-4-4-4-4-4--|
Db|-2h4-4-4-4-4-2h4-4-4-4-4-4-4-4-4--|
        * * * *     * * * * * * * *

this part comes in after the rhythm part has played a few times
(lead guitar)
eb|---------------------------------------|
Bb|---------------------------------------|
Gb|-9/11-11-11b-11-9/11-11-11b-11-11b-11--|
Db|---------------------------------------|
Ab|-7/9--9--9b--9--7/9--9--9b--9--9b--9---|
Db|---------------------------------------|

eb|----------------------------------|
Bb|----------------------------------|
Gb|-9/11-11-11b-11-9\6-6-6\4-4\3-3---|
Db|----------------------------------|
Ab|-7/9--9--9b--9--7\4-4-4\2-2\1-1---|
Db|----------------------------------|



RIP BASEMENT
Tap to rate this tab
# A B C D E F G H I J K L M N O P Q R S T U V W X Y Z