Song name
# A B C D E F G H I J K L M N O P Q R S T U V W X Y Z

Basia Bulat - Little Waltz tab

-----------------------------------------------------------------------------
			     Basia Bulat - Little Waltz
-----------------------------------------------------------------------------
Tabbed by: imash


Capo on 3rd
Tuning: Standard

Verse
(You and I, we make a grand salute...)
e|--------------------------------------------|
B|-----1--1-----1--------0--0-----0-----------|
G|-----2--2-----2--------0--0-----0-----------|
D|-----------2-----------------0--------------|
A|--0--------------0--------------------------|
E|-------------------3--------------3-2-------|

e|--------------------------------------------|
B|--0--0-----0--------0--0--------------------|
G|--0--0-----0--------0--0--------------------|
D|--------0-----------------------------------|
A|--------------------------------------------|
E|--------------2-0--------0-2-3--------------|


End of Chorus
(Please, for me)
e|--------------------------------------------|
B|-----1--1-----------1--1-----1--------------|
G|-----2--2-----------2--2-----2--------------|
D|-----------2--------------2-----------------|
A|--0-----------0-0--------------0------------|
E|--------------------------------------------|

e|--------------------------------------------|
B|-----0--0-----0-----------------------------|
G|-----0--0-----0-----------------------------|
D|-----------0--------------------------------|
A|-----------------------2--------------------|
E|--3--------------3-2-----2-3----------------|

Back to Verse





You and I, we make a grand salute
stare at each other, like lost little birds, across the room
and I remember the way you looked
I learned how to dance, but I'd never shown it to you

my love,
I know I was wrong, but you know that you'll always be
my love
stay for a while while our leaves are still green
please, for me

I know I tried, but it's hard sometimes
the roots don't take, it takes a while
and you pull at the strings
but they're broken it seems
the dance isn't over for me, no

my love,
I know I was wrong, but you know that you'll always be
my love
stay for a while while our leaves are still green
please, for me
Tap to rate this tab
 
# A B C D E F G H I J K L M N O P Q R S T U V W X Y Z