Song name
# A B C D E F G H I J K L M N O P Q R S T U V W X Y Z

Basia Bulat - Little Waltz tab

Other versions seemed to omit the chorus for some reason, so here it is in full. Enjoy :)

Intro & Verse (x4)

e----------------------------------------|
B-----4--4-----4----------3--3-----3-----|
G-----5--5-----5----------3--3-----3-----|
D-----------5-------------------3--------|
A--3--------------3----1--------------1--|
E----------------------------------------|

                                                
e----------------------------------------|
B-----3--3-----3----------3--3-----------|
G-----3--3-----3----------3--3-----------|
D-----------3----------------------------|
A--0--------------0----------------0--1--|
E----------------------3--------3--------|


Chorus (x2)

e----------------------------------------|
B-----4--4-----4----------3--3-----3--3--|
G-----5--5-----5----------3--3-----3--3--|
D-----------5----------------------------|
A--3--------------0----------------------|
E----------------------3--------3--------|


e----------------------------------------|
B-----6--6-----6--6----------------------|
G-----7--7-----7--7-------2--2-----------|
D-------------------------3--3-----------|
A--5--------5-------------------------1--|
E----------------------1--------1--3-----|


Chorus end bit

e----------------------------------------|
B-----4--4-----4--4-------4--4-----4--4--|
G-----5--5-----5--5-------5--5-----5--5--|
D-----------5-------------------5--------|
A--3-------------------3-----------------|
E----------------------------------------|


e----------------------------------------|
B-----3--3-----3-------------------------|
G-----3--3-----3----------2--2-----------|
D-----------3-------------3--3-----------|
A--1--------------1-------------------1--|
E----------------------1--------1--3-----|



-Cloudpants!
Tap to rate this tab
# A B C D E F G H I J K L M N O P Q R S T U V W X Y Z