Song name
# A B C D E F G H I J K L M N O P Q R S T U V W X Y Z

Basics - Have Love Will Travel tab

I only know the main riff 
which sounds pretty cool so enjoy.
e --------------------------------------------------|-----|
B --------------------------------------------------|--o--|
G --------------------------------------------------|-----|
D --------------------------------------------------|-----|
A --------------------------------------------------|--o--|
E ----8---8-11-13---13-11-15---13-11-13-11---8-6-8--|-----|


or it can be played like this
e --------------------------------------------------|-----|
B --------------------------------------------------|--o--|
G --------------------------------------------------|-----|
D --------------------------------------------------|-----|
A ----3----3-6-8-----8-6-10------8-6-8-6-----3-1-3--|--o--|
E --------------------------------------------------|-----|

or like this
e --------------------------------------------------|-----|
B --------------------------------------------------|--o--|
G --------------------------------------------------|-----|
D -----------1-3-----3-1-5-------3-1-3-1------------|-----|
A ----3----3---------------------------------3-1-3--|--o--|
E --------------------------------------------------|-----|
Tap to rate this tab
 
# A B C D E F G H I J K L M N O P Q R S T U V W X Y Z