Song name
# A B C D E F G H I J K L M N O P Q R S T U V W X Y Z

Basil Poledouris - Robocop Theme tab

----------------------------------------------------------------------------
			     Robocop Theme - Basil Poledouris
----------------------------------------------------------------------------

I couldn't find a tab for this, it's cool as f**k.  Think its in the right key.  All 
of elements are in this amazing piece of orchestra, but this is the main riff that appears 
couple of times in the song.

http://www.basil-poledouris.com

Tabbed by: LastRiots
Email:brent13@hotmail.co.uk

Tuning: Standard

e|---------------------------------------------------4---8-4-6-6-6-8-8-8-8-8-|
B|-------------------------------------------------6---6---------------------|
G|---------3-----------------3------------3--3-6-3---------------------------|
D|-3-6-3-5---3-6-3---3-6-3-5---1--3-6-3-5------------------------------------|
A|-----------------4---------------------------------------------------------|
E|---------------------------------------------------------------------------|
Tap to rate this tab
# A B C D E F G H I J K L M N O P Q R S T U V W X Y Z