Song name
# A B C D E F G H I J K L M N O P Q R S T U V W X Y Z

Basil Poledouris - Orphans Of Doom tab

:::::::::::::::::::::::::::::::::::::::::::::::::::::

 CONAN THE BARBARIAN - "ORPHANS OF DOOM" (Harp part)
          Music by Basil Poledouris (R.I.P)

            Transcribed by K. (Dec. 06)

:::::::::::::::::::::::::::::::::::::::::::::::::::::


Tune down to get a deeper sound.

  intro 0:00
e:------6-9-6----------6-9-6----------6-8--------------6-9-6----------4-8---------|
B:-----6-----6--------6-----6--------6---9-6----------6-----7--------4---9--------|
G:----6-------6------6-------6------6----------------6-------6------5-----10------|
D:---8---------8----8---------8----8--------10-6----8---------8----6--------10-6--|
A:--8-----------8--8-----------8--8-------------8--8-----------9--6-------------8-|
E:-6--------------6--------------6----------------6--------------4----------------|





e:------2-6---------------9-13-9-----------------9--------------------9-13-9---------|
B:-----2---7-6-----------9------9---------------9-11-----------------9------9--------|
G:----3-------6--------10----------------------8----11-------------10----------------|
D:---4---------6-----11----------13-11-----6-10-------11-10------11----------13-11---|
A:--4-----------9--11-----------------11--6----------------11--11-----------------11-|
E:-2--------------9----------------------8--------------------9----------------------|





e:------4-8--------------6-9-6----------6-8----------------9-11----------------6-8---------|
B:-----6---9------------6-----6--------6---9--------------9----13-------------6---9-6------|
G:----5-----10---------6-------6------6-----8-----------10-------13----------6-------------|
D:---6--------10-6----8---------8----8-------10-6-----11-----------13-------8--------10-6--|
A:--8-------------8--8-----------8--8------------6--11---------------11----8-------------6-|
E:-4----------------6--------------6---------------9-------------------11-6----------------|





e:-----------------------0--------2----------------------------|
B:-----2--------1---------0------4---------4--------6--------6-|
G:----3-3------1-1------1--1----4--4------4-4------8-8------8--|
D:---4---4----3---3----2----2--4----4----6---6----8---8----8---|
A:--4-----4--3-----3--2-------2------6--6-----6--8-----8--8----|
E:-2--------1--------0-----------------4--------6--------6-----|





e:-----11----------------9----------------9----------------9------9------6-9/13/18~-|
B:---11----------11-----9---------12-----9---------12-----9------9------6-----------|
G:-11-------10-11-----10-----10-11-----10-----10-11-----10-----10------6------------|
D:--------13--------13-----13--------13-----13--------13-----13-------8-------------|
A:-------------------------------------------------------------------8--------------|
E:------------------------------------------------------------------6---------------|
                                                                               01:53
Tap to rate this tab
# A B C D E F G H I J K L M N O P Q R S T U V W X Y Z