Baspok - Del-fin tab

Baspok - Del-Fin

INTRO
e|-----------------------------------|
B|-----------------------------------|
G|-----------------------------------|
D|-----------------------------------|x3
A|-----------------------------------|
E|-5-5-5-5-5-5-5-5-7-7-7-7-7-7-7-7-7-|

e|-------------------|
B|-------------------|
G|-------------------|
D|-------------------|
A|-------------------|
E|-5-5-5-5-5-5-5-5~~-|

RIFF PRINCIPAL
e|------------------------------|
B|------------------------------|
G|------------------------------|
D|------------------------------|
A|------------------------------|
E|-5-5-5-7-8-5-3-2-7-9-10-7-5-4-|

VERSO
e|--------|
B|--------|
G|--------|
D|-7--9---|
A|-7--9---|
E|-5--7---|

RIFF 2
e|------------------------------|
B|------------------------------|
G|------------------------------|
D|------------------------------|
A|-----------8-7-----------7-6--|
E|-5-5-5-5-8-----4-4-4-4-7------|

INTERLUDIO
e|-------------------------------------|
B|-------------------------------------|
G|-------------------------------------|
D|-------------------------------------|
A|-----------7-6-----------6-5---------|
E|-4-4-4-4-4-----3-3-3-3-3-----2~22222-|

RIFF FINAL
e|------------------------------------------------------------------------|
B|------------------------------------------------------------------------|
G|------------------------------------------------------------------------|
D|------------------------------------------------------------------------|
A|------------------------------------------------------------------------|
E|-2-/6-2/6-2/6-2/6-2/6-2/6-2/6-2/6-2/6-3-3-/3-333333-3/5-3/5-3/5-3/5-3/5-|

e|-----|-x-|
B|-----|-x-|
G|-----|-x-|
D|-----|-x-|
A|-----|-x-|
E|--2--|-x-|

Tap to rate this tab
 
# A B C D E F G H I J K L M N O P Q R S T U V W X Y Z