Baspok - Se Fue Con El Otoo tab

Baspok - Se fue con el Otoņo

INTRO
e|-----0-------0-------0-------0----|
B|----0-0-----0-0-----0-0-----0-0---|
G|---0---0---0---0---0---0---0---0--|x2
D|-3-------2-------1-------2--------|
A|----------------------------------|
E|----------------------------------|

e|-----0-------0-0-0-|
B|----0-0-----0------|
G|---0---0---0-------|
D|-4-------4---------|
A|-------------------|
E|-------------------|

VERSO
e|-----0-------0-------0-------0-------0-------0-------0-------0----|
B|----0-0-----0-0-----0-0-----0-0-----3-3-----3-3-----3-3-----3-3---|
G|---0---0---0---0---0---0---0---0---0---0---0---0---0---0---0---0--|
D|-4-------4-------4-------4-------4-------4-------4-------4--------|
A|------------------------------------------------------------------|
E|------------------------------------------------------------------|

e|-----0-------0-------0-------0-------0-------0-------0-------0----|
B|----0-0-----0-0-----0-0-----0-0-----3-3-----3-3-----3-3-----3-3---|
G|---0---0---0---0---0---0---0---0---0---0---0---0---0---0---0---0--|
D|------------------------------------------------------------------|
A|-5-------5-------5-------5-------5-------5-------5-------5--------|
E|------------------------------------------------------------------|

e|-----4-------4-------4-------4-------5-------5-------5-------6-6-6-|
B|----3-3-----3-3-----3-3-----3-3-----3-3-----3-3-----3-3-----3------|
G|---0---0---0---0---0---0---0---0---0---0---0---0---0---0---0-------|
D|-0-------0-------0-------0-------0-------0-------0-------0---------|
A|-------------------------------------------------------------------|
E|-------------------------------------------------------------------|

ESTRIBILLO
e|-----0-------0-------0-------0----|
B|----0-0-----0-0-----0-0-----0-0---|
G|---0---0---0---0---0---0---0---0--|x2
D|-3-------2-------1-------2--------|
A|----------------------------------|
E|----------------------------------|

FINAL
e|-----0-------0-------0-------0-------|
B|----0-0-----0-0-----0-0-----0-0---0--|
G|---0---0---0---0---0---0---0---0--x--|
D|-3-------2-------1-------2--------3--|
A|-------------------------------------|
E|-------------------------------------|


Tap to rate this tab
 
# A B C D E F G H I J K L M N O P Q R S T U V W X Y Z