Bass Drum Of Death - Get Found tab

Bass Drum of Death - Get Found

Tabbed By Richard
----------------------------------------------------------------------------
 The song is played with a capo on the first fret, but played live without
 one. The notes in the tab are relative to the capo (i.e. capo-ed fret = 0).
----------------------------------------------------------------------------

  Intro/Riff 1               
e:------------------------------------|
b:------------------------------------|
g:------------------77979^9^7---------|
D:-9999999-77977777-00000-0-0---------|
A:-9999779-00000000-----------5579997-|
E:-7777777--------------------0000000-|
                                                 
  Riff 2
e:------------------(0)------------------(0)-|
b:------------------(0)------------------(0)-|
g:------------------(0)------------------(0)-|
D:-99999999999999---(0)-99999999999999---(0)-|
A:-99999999797999----x--99999999797999----x--|
E:-77777777777777-/15---77777777777777-/15---|
                     ^ 
                  (Mix of open and muted strings on the 15th fret)


  - Riff 1 & 2  X2


   Riff 3
e:----------------|
b:----------------|
g:---------224444-|
D:-4443222-002222-|  X3
A:-4443222--------| 
E:-2221000--------|

  Riff 4
e:--------------------------------------------------|
b:--------------------------------------------------|
g:-121212--------99999999-121212--------99999999----| 
D:--------121212-----------------121212-----------9-|
A:-101010--------77777777-101010--------77777777--9-| 
E:--------101010-----------------101010-----------7-|


  - Riff 1 & 2  X3

  - Riff 3  X3

  - Riff 4  X1


  Riff 5
e:-----------------------|
b:-----------------------|
g:-----------------------| 
D:-99999999-797-9-9-9-9--|  X12
A:-99999999-000-7^7^7^7^-| 
E:-77777777-----0-0-0-0--|


  - Riff 1 & 2  X1

  - Riff 1  X1


http://www.fatpossum.com/artists/bass-drum-of-death
Tap to rate this tab
 
# A B C D E F G H I J K L M N O P Q R S T U V W X Y Z