Song name
# A B C D E F G H I J K L M N O P Q R S T U V W X Y Z

Bass Drum Of Death - Nerve Jamming tab

-------------------------------------------------------------------------------
Bass Drum of Death - Nerve Jamming - GB City
-------------------------------------------------------------------------------
Tabbed by:Julesverne1
Email:

Tuning: Standard

Verse   C#       B         E

e|----9-------7---------7----------------------------------------- -----|
B|----9-------7---------9------------------------------------------ ----|
G|---10-------8---------9-----------------------------------------------|
D|---10-------9---------9-----------------------------------------------|
A|---11-------9---------7------------------------------- ---------------|
E|----9-------7---------0---------------------------- ------------------|

chorus - G#      E

e|----4---------7-------------------------------------------------------------|
B|----4---------9-------------------------------------------------------------|
G|----5---------9-------------------------------------------------------------|
D|----6---------9-------------------------------------------------------------|
A|----6---------7-------------------------------------------------------------|
E|----4---------0------------------------------------------------- -----------|


back to verse

then....E       F#
e|---7----------------------------9--------------------------------------------|
B|---9----------------------------11-------------------------------------------|
G|---9--11^13^11--9--------------11--11^13^11--9-------------------------------|
D|---9----------------11---------11----------------11--------------------------|
A|---7----------------------------9--------------------------------------------|
E|---0-------------------------------------------------------------------------|

verse

chorus

back to verse

little bridge : F#    C#         B

e|-----2----------4---------2------------------------------------------------|
B|-----2----------6---------4------------------------------------------------|
G|-----3----------6---------4------------------------------------------------|
D|-----4----------6---------4------------------------------------------------|
A|-----4----------4---------2------------------------------------------------|
E|-----2---------------------------------------------------------------------|


finish with an E chord

verse

riff1


Hope that makes sense kids
************************************

| /   slide up
| \   slide down
| h   hammer-on
| p   pull-off
| ~   vibrato
| +   harmonic
| x   Mute note
| b   Bend
| pb  Pre-bend
| br  Bend release
| pbr Pre-bend release
| brb Bend release bend

************************************
Tap to rate this tab
# A B C D E F G H I J K L M N O P Q R S T U V W X Y Z