Song name
# A B C D E F G H I J K L M N O P Q R S T U V W X Y Z

Bass Drum Of Death - Velvet Itch tab

(/) Slide Up
(\) Slide Down
(h) Hammer On
(p) Pull Off
(b) Bend
(r) Release
(v) Vibrato

Verses
E|-----------------------|
B|--7--7--x--10--10--10--|
G|--9--9--x--12--12--12--|
D|--9--9--x--12--12--12--|
A|-----------------------|
E|-----------------------|


Chorus (at "oh can you scratch it?")
E|--7--7--x--x--x--x--|
B|--9--9--x--x--x--x--|
G|--9--9--x--x--x--x--|  x3
D|--------------------|
A|--------------------|
E|--------------------|


last bar of chorus
E|--7--6--5--4--3--2--1--0--|
B|--9--8--7--6--5--4--3--2--|
G|--9--8--7--6--5--4--3--2--|
D|--------------------------|
A|--------------------------|
E|--------------------------|

Solo/bridge thing here, sounds best if you mute everything other than the notes you're 
playing and strum everything.

E|---------------------------|
B|-------------12b14---------|
G|---------------------------|
D|--12--12--9---------9--12--|
A|---------------------------|
E|---------------------------|
                                                        http://www.guitartabcreator.com
Tap to rate this tab
# A B C D E F G H I J K L M N O P Q R S T U V W X Y Z