Song name
# A B C D E F G H I J K L M N O P Q R S T U V W X Y Z

Bass Drum Of Death - Way Out tab

Tuning: Standard 
Key: F

Intro riff:
e|------------------------------------------------------------| x4
B|-----15--------------------10-------------------------------|
G|---------14--------------------9----------------------------|
D|--/15--------15---------/10---------10----------------------|
A|------------------------------------------------------------|
E|------------------------------------------------------------|


e|--x--x--x--x------x------------------------------------------| x1
B|--15-15-15-15-----/17----------------------------------------|
G|--14-14-14-14-----/16----------------------------------------|
D|--15-15-15-15-----/17----------------------------------------|
A|--x--x--x--x------x------------------------------------------|
E|--x--x--x--x------x------------------------------------------|

Chords:

F - C - F - C - A - C - A - C 
(I prefer bar-chords or powerchords, up to you) 


Lead over the chords: (played twice)
e|-------------------------------------------------------------| 
B|----------8-----------8--------------------------------------|
G|----8-h10---10--p8-10---10--h8-------------------------------|
D|----------------------------------10-10-10-10-10-10-10-10-10-|
A|-------------------------------------------------------------|
E|-------------------------------------------------------------|

e|-------------------------------------------------------------| 
B|-------------------------------------------------------------|
G|-------------------------------------------------------------|
D|--8-8-8-8-8-8-8-/13-13-13-13-13-13-13-13-13------------------|
A|-------------------------------------------------------------|
E|-------------------------------------------------------------|

Verse: A - C - D 
Chorus: F - C - F - C - A - C - A - C 


Use a fuzz or distortion pedal and a lot of reverb. 

Tap to rate this tab
# A B C D E F G H I J K L M N O P Q R S T U V W X Y Z