Song name
# A B C D E F G H I J K L M N O P Q R S T U V W X Y Z

Basshunter - Depot Blues tab

----------------------------------------------------------------------------
			     DOTA - Basshunter
----------------------------------------------------------------------------
Tabbed by: Andrew Davis
Email: cleanloud@gmail.com

I made a mistake before, but I am 100% that these tabs are right.
4 DAY RAVE!

e|-------------------------------------------------------------------------|
B|-------------------------------------------------------------------------|
G|-------------------------------------------------------------------------|
D|--5---5---5---7--------------5---5--7------------------------------------|
A|----7---7-------7-------7-77---7------8----------------------------------|
E|-------------------------------------------------------------------------|

e|-------------------------------------------------------------------------|
B|-------------------------------------------------------------------------|
G|-------------------------------------------------------------------------|
D|--5---5---5-5----------5---5---5-5---------------------------------------|
A|----7---7----------------7---7-------------------------------------------|
E|--------------8--------------------7-------------------------------------|

============================================================================
Tap to rate this tab
# A B C D E F G H I J K L M N O P Q R S T U V W X Y Z