Song name
# A B C D E F G H I J K L M N O P Q R S T U V W X Y Z

Basshunter - Russian Privjet tab

-----------------------------------------------------------------------
			     Russian Privjet - Basshunter
-----------------------------------------------------------------------
Tabbed by Stolen Identity
Thanks to crmrz

Standard Tuning (EADGBe)

e|------------------10-10-11-11-13-11-11---11----------|
B|--------------------------------------------13-13-13-|
G|-----------12-12-------------------------------------|
D|-10-10--10-------------------------------------------|
A|-----------------------------------------------------|
E|-----------------------------------------------------|

e|-----------------------------------------|
B|--13-13-11-----------------------11------|
G|-----------12-12--12-12-12-13-12---10-10-|
D|-----------------------------------------|
A|-----------------------------------------|
E|-----------------------------------------|

e|--------------------------------|
B|--------------------------------|
G|-10-------10-12-----------------|
D|----12-13-------13-12-10-10-----|
A|--------------------------------|
E|--------------------------------|

e|---------------------------------------------13--------|
B|-13-13-13--15-15-16--13-13---13-13-13--15-15---16--16--|
G|-------------------------------------------------------|
D|-------------------------------------------------------|
A|-------------------------------------------------------|
E|-------------------------------------------------------|

e|----15-15-15-----------------13-13--13-----13--------------|
B|-16----------16-16--16-15-16----------15-16------16-13-13--|
G|----------------------------------------------15-----------|
D|-----------------------------------------------------------|
A|-----------------------------------------------------------|
E|-----------------------------------------------------------|
Tap to rate this tab
# A B C D E F G H I J K L M N O P Q R S T U V W X Y Z