Song name
# A B C D E F G H I J K L M N O P Q R S T U V W X Y Z

Basshunter - I Can Walk On Water I Can Fly tab

-------------------------------------------------------------------------------
              I can walk on Water, I can fly - Basshunter
-------------------------------------------------------------------------------
Tabbed by: Martin Messner
Email: bigbonsai@hotmail.de
This Song On Youtube: http://www.youtube.com/watch?v=bfuLYW3HVoQ&feature=channel_page

Tuning: E-Standard

//////////////////////////////////////////////
//                                          //
//  RATING THIS TAB TAKES ABOUT 5 SECONDS   //
//  AND HELPS ME TO IMPROVE MY WORK         //
//                                          //
//////////////////////////////////////////////


Offbeat-Bass
G|--------------------------------------------------------|
D|---------------------------11--11--11--11--9--9--9--9---|
A|---9--9--9--9-------------------------------------------|
E|---------------9--9--9--9-------------------------------|

Melody
e|--------------------------------------------------------------|
B|---------------------------------14-----14--12----12----------|
G|--11------14--13-11-13---------------14--------14-----14--13--|2x
D|-------11---------------14--11--------------------------------|
A|--------------------------------------------------------------|
E|--------------------------------------------------------------|

Extended Intrumental Melody

Upbeat
e|----------------|
B|----------------|
G|--16-16-14-13---|
D|----------------|
A|----------------|
E|----------------|

e|--------------------------------------------------------------|
B|---------------------------------14-----14--12----12----------|
G|--11------14--13-11-13---------------14--------14-----14--13--|
D|-------11---------------14--11--------------------------------|
A|--------------------------------------------------------------|
E|--------------------------------------------------------------|
                      |
                      trill

e|--------------------------------------|
B|---------14-----14--12----12----------|
G|--14--16-----14--------14-----14--13--|
D|--------------------------------------|
A|--------------------------------------|
E|--------------------------------------|
                             |
                             trill

The last four measures are 1,5 steps higher than the melody before.
Tap to rate this tab
# A B C D E F G H I J K L M N O P Q R S T U V W X Y Z