Song name
# A B C D E F G H I J K L M N O P Q R S T U V W X Y Z

Basshunter - Dont Walk Away tab

Part A
E|-----------------------------------------------------------------8-------6----|
A|----------9--------------------------------------8----------------------------|
D|*------------------12---------10-------------------------6---8-------8-------*|
G|*----10-------10------------------------13---8-------8-----6---6---6---6-----*|
B|---8----8---8----8-------10--------10------6---6---6---6----------------------|
E|----------------------9-----9----9----9---------------------------------------|




Lead In:
E|----------------------|
A|-----------8-9-11-9-8-|
D|----------------------|
G|----------------------|
B|----------------------|
E|----------------------|


Part B:
E|-----------------------------------------------------------------------|
A|---6-----------9--8-9-6--6--6--6--4-6-4--------------------------------|
D|*-----5--5--5----------------------------3--3--3--5-6-5--5--5--5-3-----|
G|*------------------------------------------------------------------6-5-|
B|-----------------------------------------------------------------------|
E|-----------------------------------------------------------------------|

E|----------------------------------------6--6--6--6--3-6-4--4--4--4-6-4-3--|
A|---6-----------9--8-9-6--6--6--6--4-6-4-----------------------------------|
D|------5--5--5------------------------------------------------------------*|
G|-------------------------------------------------------------------------*|
B|--------------------------------------------------------------------------|
E|--------------------------------------------------------------------------|
Tap to rate this tab
 
# A B C D E F G H I J K L M N O P Q R S T U V W X Y Z