Basshunter - Now Youre Gone tab

e|-------------------------------------------------------|  BARS
B|-------------------------------------------------------|
G|-------------------------------------------------------|  1 2
D|-10-9--7------7h9---7h10-------------------------------|
A|-------------------------------------------------------|
E|-------------------------------------------------------|


e|-------------------------------------------------------|
B|-------------------------------------------------------|
G|------------7------------------------------------------|
D|-10-----10------10-10-10--10\9-------------------------| 3 4
A|--------------------------------10-10------------------|
E|-------------------------------------------------------|

e|-------------------------------------------------------|
B|-------------------------------------------------------|
G|-------------------------------------------------------| 5 6
D|-10-10---9--10--10--9---7-----7-10---------------------|
A|-------------------------------------------------------|
E|-------------------------------------------------------|

e|-------------------------------------------------------|
B|-------------------------------------------------------|
G|-9-7-7-------------------------------------------------| 7 8
D|-------10--10--9--10--10-------------------------------|
A|-------------------------------------------------------|
E|-------------------------------------------------------|

e|-------------------------------------------------------|
B|-------------------------------------------------------|
G|-------------------------------------------------------|
D|-10-10--9--7-------9--7--------10--9-------------------| 9 10
A|--------------10---------------------------------------|
E|-------------------------------------------------------|

e|-------------------------------------------------------|
B|-------------------------------------------------------|
G|-------------------7-----------------------------------|
D|-7--7h9---7h10--10----10-10-10-------------------------| 11 12
A|-------------------------------------------------------|
E|-------------------------------------------------------|

e|-------------------------------------------------------|
B|-------------------------------------------------------|
G|-------------------------------------------------------| 13 14
D|-10\9-----------10-10--9--10--9------------------------|
A|--------10--10-----------------------------------------|
E|-------------------------------------------------------|

e|-------------------------------------------------------|
B|-------------------------------------------------------|
G|---------9--7-7----------------------------------------| 15 16
D|-7---10-----------10--10-------------------------------|
A|-------------------------------------------------------|
E|-------------------------------------------------------|

e|-------------------------------------------------------|
B|-------------------------------------------------------|
G|-------------------------------------------------------|
D|-9----------10-10-----9-----7-------9------------------| 17 18
A|-----10-10--------------------10-----------------------|
E|-------------------------------------------------------|

e|-------------------------------------------------------|
B|-------------------------------------------------------|
G|-------------------7--10-------------------------------| 19 20
D|-7---7h9--7h10--10-------------------------------------|
A|-------------------------------------------------------|
E|-------------------------------------------------------|

e|-------------------------------------------------------|
B|-------------------------------------------------------|
G|-------------------------------------------------------| 21 22
D|-9---------------10-10-10-10-9--10---------------------|
A|---------10-10-----------------------------------------|
E|-------------------------------------------------------|

e|-------------------------------------------------------|
B|-------------------------------------------------------|
G|--------------9--7--7----------------------------------| 23 24
D|-7-----7-10-------------10--10\9-----------------------|
A|-------------------------------------------------------|
E|-------------------------------------------------------|

e|-------------------------------------------------------|
B|-------------------------------------------------------|
G|-------------------------------------------------------| 25 26
D|-10-10---9---9-----------------------------------------|
A|-------------------------------------------------------|
E|-------------------------------------------------------|

e|-------------------------------------------------------|
B|-------------------------------------------------------|
G|---------------------------7---------------------------|
D|-7-----------7-9--10----10-----10--10------------------| 27 28
A|-------------------------------------------------------|
E|-------------------------------------------------------|

e|-------------------------------------------------------|
B|-------------------------------------------------------|
G|-------------------------------------------------------| 29 30
D|-10\9-------------10-10-10-10-9--9--9\7----------------|
A|---------10-10-10--------------------------------------|
E|-------------------------------------------------------|

e|-------------------------------------------------------|
B|-------------------------------------------------------| 31 32
G|---------9----9-7-----7--------------------------------| 
D|--7-10------------------10---10--10h9------------------|
A|-------------------------------------------------------|
E|-------------------------------------------------------|

e|-------------------------------------------------------|
B|-------------------------------------------------------| 33 34
G|10-10-9--7-----------9---------------------------------|
D|------------10-----------------------------------------|
A|-------------------------------------------------------|
E|-------------------------------------------------------|

e|-------------------------------------------------------|
B|-------------------------------------------------------|
G|-------------------------------------------------------| 36 
D|-10-10-10-10-10-10-10-10-10----------------------------|
A|-------------------------------10-10-10----------------|
E|-------------------------------------------------------|

e|-------------------------------------------------------|
B|-------------------------------------------------------|
G|-------------------------------------------------------|
D|-7-7-7-7-7-7-7-7-7-------------------------------------| 37
A|--------------------10-10-10---------------------------|
E|-------------------------------------------------------|

e|-------------------------------------------------------|
B|-------------------------------------------------------|
G|-------------------------------------------------------| 38
D|-------------------------------------------------------|
A|----------------------10-10-10-10----------------------|
E|-10-10-10-10-10-10-10-------------10-10-10-------------|

e|-------------------------------------------------------|
B|-------------------------------------------------------|
G|-------------------------------------------------------|
D|----------------10-10-10-9-9-9-------------------------| 39
A|-7-7-7-7-7-7-7-----------------------------------------|
E|-------------------------------------------------------|

e|-------------------------------------------------------|
B|-------------------------------------------------------|
G|----------------------9-9-9----------------------------| 40
D|-7-7-7-7-7-7-10-10-10----------------------------------|
A|-------------------------------------------------------|
E|-------------------------------------------------------|

e|-------------------------------------------------------|
B|-10-10-10-10-10-10-10-10-8-8-8-------------------------|
G|-------------------------------------------------------| 41
D|-------------------------------------------------------|
A|-------------------------------------------------------|
E|-------------------------------------------------------|


e|-------------------7-7-7-------------------------------|
B|-----------8--8-8--------------------------------------|
G|-7-7-7-7-7---------------------------------------------|
D|-------------------------------------------------------| 42
A|-------------------------------------------------------|
E|-------------------------------------------------------|

e|-8-8-8-8-8-8-8-7-7-7-7-7-7-7---------------------------|
B|-------------------------------------------------------|
G|-------------------------------------------------------| 43
D|-------------------------------------------------------|
A|-------------------------------------------------------|
E|-------------------------------------------------------|

e|-7-7-7-7-7-7-7-7-7-------------------------------------|
B|-------------------------------------------------------|
G|-------------------------------------------------------| 44 45
D|--------------------10-10-10-10-10-10-10-10------------|
A|--------------------------------------------10-10-10---|
E|-------------------------------------------------------|

e|-------------------------------------------------------|
B|-------------------------------------------------------|
G|-------------------------------------------------------|
D|-7-7-7-7-7-7-7-7---------------------------------------| 46
A|-----------------10-10-10-10-10------------------------|
E|-------------------------------------------------------|

e|-------------------------------------------------------|
B|-------------------------------------------------------|
G|-------------------------------------------------------|
D|-------------------------------------------------------| 47
A|-------------------10-10-10----------------------------|
E|-10-10-10-10-10-10----------10-10-10-------------------|

e|-------------------------------------------------------|
B|-------------------------------------------------------|
G|----------------------------------------------9-9-9----|
D|--------------10-10-10-9-9-9-7-7-7-7-10-10-10----------| 48 49
A|-7-7-7-7-7-7-------------------------------------------|
E|-------------------------------------------------------|


e|--------------------------------------------7-7-7------|
B|-10-10-10-10-10-10-8-8-8--------------8-8-8------------|
G|--------------------------7-7-7-7-7-7------------------|
D|-------------------------------------------------------| 50 51
A|-------------------------------------------------------|
E|-------------------------------------------------------|

e|-8-8-8-8-8-8-8-8-8-7-7-7-7-7-7-7-7-7-7-7-7-7-7-7-7-7-7-|
B|-------------------------------------------------------|
G|-------------------------------------------------------| 52 53
D|-------------------------------------------------------|
A|-------------------------------------------------------|
E|-------------------------------------------------------|


e|-------------------------------------------------------|
B|-------------------------------------------------------|
G|-------------------7-----------------------------------|
D|-10-9-7h9-7h10--10-----10-10-10------------------------| 54 55 56
A|-------------------------------------------------------|
E|-------------------------------------------------------|

e|-------------------------------------------------------|
B|-------------------------------------------------------| 57 58
G|-------------------------------------------------------|
D|-10\9----------10--10--9--10--9------------------------|
A|--------10-10------------------------------------------|
E|-------------------------------------------------------|

e|-------------------------------------------------------|
B|-------------------------------------------------------|
G|------------9---7--7-----------------------------------|59 60
D|-7---7-10---------------10----10-----------------------|
A|-------------------------------------------------------|
E|-------------------------------------------------------|

e|-------------------------------------------------------|
B|-------------------------------------------------------|
G|-------------------------------------------------------|61 62
D|-9------------------10--10----9---7-------9------------|
A|-----------10--10-------------------10-----------------|
E|-------------------------------------------------------|

e|-------------------------------------------------------|
B|-------------------------------------------------------|
G|-----------------------7-------------------------------|
D|-7-------7h9-7h10---10------10-------------------------|63 64
A|-------------------------------------------------------|
E|-------------------------------------------------------|
 
e|-------------------------------------------------------|
B|-------------------------------------------------------|
G|-------------------------------------------------------|
D|-9-----------10--10--10--10-9---10--9------------------|65 66
A|-----10-10---------------------------------------------|
E|-------------------------------------------------------|

e|-------------------------------------------------------|
B|-------------------------------------------------------|
G|-------------9----7--7---------------------------------|67 68
D|-7----7-10----------------10--10\9---------------------|
A|-------------------------------------------------------|
E|-------------------------------------------------------|

e|-------------------------------------------------------|
B|-------------------------------------------------------|
G|-------------------------------------------------------|
D|--------10-10----9--9----------------------------------|69 70
A|-10-10-------------------------------------------------|
E|-------------------------------------------------------|

e|-------------------------------------------------------|
B|-------------------------------------------------------|
G|-------------------------------------------------------|
D|-7----10---9-----7---7h9--7h10-------------------------|71 72
A|-------------------------------------------------------|
E|-------------------------------------------------------|

e|-------------------------------------------------------|
B|-------------------------------------------------------|
G|----7--------------------------------------------------|
D|-10----10-10-10---10\9---------------------------------|73 74
A|------------------------10-10--------------------------|
E|-------------------------------------------------------|

e|-------------------------------------------------------|
B|-------------------------------------------------------|
G|-------------------------------------------------------|
D|-10--10-----9---10---9-----7----7---10-----------------|75 76
A|-------------------------------------------------------|
E|-------------------------------------------------------|

e|-------------------------------------------------------|
B|-------------------------------------------------------|
G|-9--7--7-----------------------------------------------|77 78
D|---------10--10---9------------------------------------|
A|------------------------10--10-------------------------|
E|-------------------------------------------------------|

e|-------------------------------------------------------|
B|-------------------------------------------------------|
G|-------------------------------------------------------|79 80
D|-10-10----9----7-------9----7----7h9--7h10-------------|
A|-----------------10------------------------------------|
E|-------------------------------------------------------|

e|-------------------------------------------------------|
B|-------------------------------------------------------|
G|-----7-------------------------------------------------|
D|-10------10-----9--------------------------------------|81 82
A|-------------------------10--10------------------------|
E|-------------------------------------------------------|

e|-------------------------------------------------------|
B|-------------------------------------------------------|
G|-------------------------------------------------------|
D|-10-10-10-10--9------10---9------7------7----10--------|
A|-------------------------------------------------------|83 84
E|-------------------------------------------------------|

e|-------------------------------------------------------|
B|-------------------------------------------------------|
G|-9---7---7---------------------------------------------|85 86
D|--------------10---10\9--------------------------------|
A|--------------------------------10---10----------------|
E|-------------------------------------------------------|

e|-------------------------------------------------------|
B|-------------------------------------------------------|
G|-------------------------------------------------------|87 88
D|-10---10----9-----9------7---------7----9--------------|
A|-------------------------------------------------------|
E|-------------------------------------------------------|

e|-------------------------------------------------------|
B|-------------------------------------------------------|
G|-------7-----------------------------------------------|
D|-10-10-----10---10--10\9-------------------------------|89 90
A|-----------------------------10--10--10----------------|
E|-------------------------------------------------------|

e|-------------------------------------------------------|
B|-------------------------------------------------------|
G|-------------------------------------------------------|
D|-10-10-10-10-9---9---9\7----------------7-10-----------|91 92
A|-------------------------------------------------------|
E|-------------------------------------------------------|

e|-------------------------------------------------------|
B|-------------------------------------------------------|
G|-9------9--7-----7-------------------------------------|
D|-------------------10------10---10h9-------------------|93 94
A|-------------------------------------------10--10------|
E|-------------------------------------------------------|

e|-------------------------------------------------------|
B|-------------------------------------------------------|
G|-------------------------------------------------------|95 96
D|-10-10-9-7------9----7---------------------------------|
A|-----------10------------------------------------------|
E|-------------------------------------------------------|
Tap to rate this tab
 
# A B C D E F G H I J K L M N O P Q R S T U V W X Y Z