Basshunter - Now Youre Gone tab

e|-------------------------------------------------------|
B|-17-13-10-x4-18-13-10x4--15-12-8-x4--17-13-8-x4--------|
G|-------------------------------------------------------| All Pull offs
D|-------------------------------------------------------|
A|-------------------------------------------------------| x2
E|-------------------------------------------------------|

e|-------------------------------------------------------|
B|--------------------------------------17-15------------|
G|-17-14-17b-16----17-16-16b-14---14h17-------17\16------|
D|--------------17-----------------------------------17--| All pull offs
A|-------------------------------------------------------|
E|-------------------------------------------------------|

e|---------------------------------------------------------|
B|---------------------17-15-------------------------------|
G|-17-16-16b-14-14h17---------17\16-17-17-16-16b-14--------|
D|---------------------------------------------------------| All Pull Offs
A|---------------------------------------------------------|
E|---------------------------------------------------------|
Tap to rate this tab
 
# A B C D E F G H I J K L M N O P Q R S T U V W X Y Z