Song name
# A B C D E F G H I J K L M N O P Q R S T U V W X Y Z

Bastille - Pompeii tab

Standard tuning
If youґll find any mistake, please contact me(peter.hrabos@gmail.com).

Bastile - Pompeii

(1:04-1:19) Chorus
---------------------------------------------------|
---------------------------------------------------|
---------------11---9------------------------------|
-----12---11---11---9------------------------------|
-----12---12---9----7------------------------------|
-----10---9----------------------------------------|
(1:20-1:26) Bridge
---------------------------------------------------|
---------------------------------------------------|
-------------9-------------------------------------|
---12---11---9-------------------------------------|
---12---12---7-------------------------------------|
---10---9------------------------------------------|
(1:27-1:41) Verse part 1
---------------------------------------------------|
---------------------------------------------------|
-----------------------------11--------9-----------|
----12-----------11------------(4x)-----(4x)-------|
------(4x)---------(4x)-----9---------7------------|
---10-----------9----------------------------------|
(1:42-1:55) Verse part 2
---------------------------------------------------|
---------------------------------------------------|
---------------11---9------------------------------|
----12----11---x----x------------------------------|
----x-----x----9----7------------------------------|
----10----9----------------------------------------|

Song:
Intro
Chorus
Bridge
Verse(both parts)
Chorus
Bridge
Chorus(Instrumental)
Verse
Chorus
Bridge
Chorus
Tap to rate this tab
# A B C D E F G H I J K L M N O P Q R S T U V W X Y Z