Song name
# A B C D E F G H I J K L M N O P Q R S T U V W X Y Z

Bastille - Pompeii Acoustic tab

-------------------------------------------------------------------------------
                             POMPEII - Bastille
-------------------------------------------------------------------------------
Tabbed by:tomrobinsonnn
E-mail:robo_tom1@hotmail.com


Made this tab as there wasn't an acoustic one for it already. I've taken it from 
Bastille's Mahogany session on youtube here: http://www.youtube.com/watch?v=KI13Pe6IvDc. In 
regards to the chorus you can simple strum or make up your own. It's my first tab 
so any corrections or queries then please let me know!

Tuning:Standard

Intro/Verse

e|-----------------------------------|
B|-----------------------------------|
G|---11-------6------2-------1-------|
D|-----------------------------------| x 2
A|-----------------------------------|
E|---10-------5------2-------0-------|

e|-----------------------------------|
B|-----------------------------------|
G|---11-------6------2-------1-------|
D|-----------------------------------| x 4
A|-----------------------------------|
E|---10-------5------2-------0-------|

Chorus

e|---5-------5-------2-------0-------|
B|---5-------5-------2-------0-------|
G|---7-------6-------2-------1-------|
D|---7-------7-------4-------2-------| x 2
A|---5-------7-------4-------2-------|
E|---5-------5-------2-------0-------|

e|---5-------5-------0-----|
B|---5-------5-------0-----|
G|---7-------6-------1-----|
D|---7-------7-------2-----| x 2
A|---5-------7-------2-----|
E|---5-------5-------0-----|

Verse

e|---------------------------------------------------------------------------|
B|---------------------------------------------------------------------------|
G|-----11---11---11---11---6---6---6---6---2---2---2---2---0---0---0---0-----|
D|---------------------------------------------------------------------------| x 4
A|---------------------------------------------------------------------------|
E|---10---10---10---10---5---5---5---5---2---2---2---2---0---0---0---0-------|

Chorus

e|---5-------5-------2-------0-------|
B|---5-------5-------2-------0-------|
G|---7-------6-------2-------1-------|
D|---7-------7-------4-------2-------| x 2
A|---5-------7-------4-------2-------|
E|---5-------5-------2-------0-------|

e|---5-------5-------0-----|
B|---5-------5-------0-----|
G|---7-------6-------1-----|
D|---7-------7-------2-----| x 2
A|---5-------7-------2-----|
E|---5-------5-------0-----|

Bridge

e|-----------------------------------|
B|-----------------------------------|
G|---11-------6------2-------1-------|
D|-----------------------------------| x 2
A|-----------------------------------|
E|---10-------5------2-------0-------|

e|---5-------5-------2-------0-------|
B|---5-------5-------2-------0-------|
G|---7-------6-------2-------1-------|
D|---7-------7-------4-------2-------| x 3
A|---5-------7-------4-------2-------|
E|---5-------5-------2-------0-------|

Chorus

e|---5-------5-------2-------0-------|
B|---5-------5-------2-------0-------|
G|---7-------6-------2-------1-------|
D|---7-------7-------4-------2-------| x 2
A|---5-------7-------4-------2-------|
E|---5-------5-------2-------0-------|

e|---5-------5-------0-----|
B|---5-------5-------0-----|
G|---7-------6-------1-----|
D|---7-------7-------2-----| x 2
A|---5-------7-------2-----|
E|---5-------5-------0-----|

Outro

e|---5-------5-------2-------0-------|
B|---5-------5-------2-------0-------|
G|---7-------6-------2-------1-------|
D|---7-------7-------4-------2-------|
A|---5-------7-------4-------2-------|
E|---5-------5-------2-------0-------|




************************************

| /   slide up
| \   slide down
| h   hammer-on
| p   pull-off
| ~   vibrato
| +   harmonic
| x   Mute note
| b   Bend
| pb  Pre-bend
| br  Bend release
| pbr Pre-bend release
| brb Bend release bend
Tap to rate this tab
# A B C D E F G H I J K L M N O P Q R S T U V W X Y Z