Song name
# A B C D E F G H I J K L M N O P Q R S T U V W X Y Z

Bastille - Flaws tab

Song: Flaws (Acoustic)
Artist: Bastille

Tuning: Standard
Capo: 1st fret

This is my first tab and it's my interpretation, so any corrections are welcome. I 
hope you enjoy it.

Intro:
e|-----------------|-----------------|-----------------|--------------------|
B|---1---1---1---1-|---1---1---1---1-|---0---0---0---0-|---0---0------------|
G|--0---0---0---0--|--0---0---0---0--|--0---0---0---0--|--0---0-------------|  x2
D|-----2-------2---|-----2-------2---|-------------0---|-----0---0h2--------|
A|-3-------3-------|-3-------3-------|-----0---2-------|-3------------------|
E|-----------------|-----------------|-3---------------|--------------------|

Verse:
e|-----------------|-----------------|-----------------|--------------------|
B|---1---1---1---1-|---1---1---1---1-|---0---0---0---0-|---0---0------------|
G|--0---0---0---0--|--0---0---0---0--|--0---0---0---0--|--0---0-------------|  x4
D|-----2-------2---|-----2-------2---|-------------0---|-----0---0h2--------|
A|-3-------3-------|-3-------3-------|-----0---2-------|-3------------------|
E|-----------------|-----------------|-3---------------|--------------------|

Pre Chorus:
e|--0-----0----|--0-----0----|--3-----3----|--3-----3----|
B|--0-----0----|--1-----1----|--0-----0----|--2-----2----|
G|--0-----0----|--0-----0----|--0-----0----|--3-----3----|
D|--2-----2----|--2-----2----|--0-----0----|--0-----0----|    x2
A|--2-----2----|--3-----3----|--2-----2----|-------------|
E|--0-----0----|-------------|--3-----3----|-------------|



Chorus:
e|--3-3-3-3-3-3-3-|-0-0-0-0-0-0-0-|-3-3-3-3-3-3-3-|-0-0-0-0-0-0-0-|
B|--0-0-0-0-0-0-0-|-1-1-1-1-1-1-1-|-2-2-2-2-2-2-2-|-0-0-0-0-0-0-0-|
G|--0-0-0-0-0-0-0-|-0-0-0-0-0-0-0-|-3-3-3-3-3-3-3-|-0-0-0-0-0-0-0-|
D|--0-0-0-0-0-0-0-|-2-2-2-2-2-2-2-|-0-0-0-0-0-0-0-|-2-2-2-2-2-2-2-|
A|--2-2-2-2-2-2-2-|-3-3-3-3-3-3-3-|---------------|-2-2-2-2-2-2-2-|
E|--3-3-3-3-3-3-3-|---------------|---------------|-0-0-0-0-0-0-0-|

e|--3-3-3-3-3-3-3-|-0-0-0-0-0-0-0-|-3-3-3-3-3-3-3-|-3-3-3-3-3-3-3-|
B|--0-0-0-0-0-0-0-|-1-1-1-1-1-1-1-|-2-2-2-2-2-2-2-|-0-0-0-0-0-0-0-|
G|--0-0-0-0-0-0-0-|-0-0-0-0-0-0-0-|-3-3-3-3-3-3-3-|-0-0-0-0-0-0-0-|
D|--0-0-0-0-0-0-0-|-2-2-2-2-2-2-2-|-0-0-0-0-0-0-0-|-0-0-0-0-0-0-0-|
A|--2-2-2-2-2-2-2-|-3-3-3-3-3-3-3-|---------------|-2-2-2-2-2-2-2-|
E|--3-3-3-3-3-3-3-|---------------|---------------|-3-3-3-3-3-3-3-|

e|--0-0-0-0-0-0-0-|-3-3-3-3-3-3-3-|-3-3-3-3-3-3-3-|-3-3-3-3-3-3-3-|
B|--1-1-1-1-1-1-1-|-0-0-0-0-0-0-0-|-2-2-2-2-2-2-2-|-2-2-2-2-2-2-2-|
G|--0-0-0-0-0-0-0-|-0-0-0-0-0-0-0-|-3-3-3-3-3-3-3-|-3-3-3-3-3-3-3-|
D|--2-2-2-2-2-2-2-|-0-0-0-0-0-0-0-|-0-0-0-0-0-0-0-|-0-0-0-0-0-0-0-|  x2
A|--3-3-3-3-3-3-3-|-2-2-2-2-2-2-2-|---------------|---------------|
E|----------------|-3-3-3-3-3-3-3-|---------------|---------------|

Verse:
e|-----------------|-----------------|-----------------|--------------------|
B|---1---1---1---1-|---1---1---1---1-|---0---0---0---0-|---0---0------------|
G|--0---0---0---0--|--0---0---0---0--|--0---0---0---0--|--0---0-------------|  x2
D|-----2-------2---|-----2-------2---|-------------0---|-----0---0h2--------|
A|-3-------3-------|-3-------3-------|-----0---2-------|-3------------------|
E|-----------------|-----------------|-3---------------|--------------------|

Pre Chorus:
e|--0-----0----|--0-----0----|--3-----3----|--3-----3----|
B|--0-----0----|--1-----1----|--0-----0----|--2-----2----|
G|--0-----0----|--0-----0----|--0-----0----|--3-----3----|
D|--2-----2----|--2-----2----|--0-----0----|--0-----0----|    x2
A|--2-----2----|--3-----3----|--2-----2----|-------------|
E|--0-----0----|-------------|--3-----3----|-------------|



Chorus:
e|--3-3-3-3-3-3-3-|-0-0-0-0-0-0-0-|-3-3-3-3-3-3-3-|-0-0-0-0-0-0-0-|
B|--0-0-0-0-0-0-0-|-1-1-1-1-1-1-1-|-2-2-2-2-2-2-2-|-0-0-0-0-0-0-0-|
G|--0-0-0-0-0-0-0-|-0-0-0-0-0-0-0-|-3-3-3-3-3-3-3-|-0-0-0-0-0-0-0-|
D|--0-0-0-0-0-0-0-|-2-2-2-2-2-2-2-|-0-0-0-0-0-0-0-|-2-2-2-2-2-2-2-|
A|--2-2-2-2-2-2-2-|-3-3-3-3-3-3-3-|---------------|-2-2-2-2-2-2-2-|
E|--3-3-3-3-3-3-3-|---------------|---------------|-0-0-0-0-0-0-0-|

e|--3-3-3-3-3-3-3-|-0-0-0-0-0-0-0-|-3-3-3-3-3-3-3-|-3-3-3-3-3-3-3-|
B|--0-0-0-0-0-0-0-|-1-1-1-1-1-1-1-|-2-2-2-2-2-2-2-|-0-0-0-0-0-0-0-|
G|--0-0-0-0-0-0-0-|-0-0-0-0-0-0-0-|-3-3-3-3-3-3-3-|-0-0-0-0-0-0-0-|
D|--0-0-0-0-0-0-0-|-2-2-2-2-2-2-2-|-0-0-0-0-0-0-0-|-0-0-0-0-0-0-0-|
A|--2-2-2-2-2-2-2-|-3-3-3-3-3-3-3-|---------------|-2-2-2-2-2-2-2-|
E|--3-3-3-3-3-3-3-|---------------|---------------|-3-3-3-3-3-3-3-|

e|--0-0-0-0-0-0-0-|-3-3-3-3-3-3-3-|-3-3-3-3-3-3-3-|-3-3-3-3-3-3-3-|
B|--1-1-1-1-1-1-1-|-0-0-0-0-0-0-0-|-2-2-2-2-2-2-2-|-2-2-2-2-2-2-2-|
G|--0-0-0-0-0-0-0-|-0-0-0-0-0-0-0-|-3-3-3-3-3-3-3-|-3-3-3-3-3-3-3-|
D|--2-2-2-2-2-2-2-|-0-0-0-0-0-0-0-|-0-0-0-0-0-0-0-|-0-0-0-0-0-0-0-|  x2
A|--3-3-3-3-3-3-3-|-2-2-2-2-2-2-2-|---------------|---------------|
E|----------------|-3-3-3-3-3-3-3-|---------------|---------------|

Post Chorus:
e|-------------------|----------------|-----------------------------------------|  \
B|-----1---1---1---1-|---1---1---1--1-|---1---0---0---0---0---0---0---0---0---0-|   \
G|----0---0---0---0--|--0---0---0--0--|--0---0---0---0---0---0---0---0---0---0--|    \
D|-------2-------2---|-----2------2---|---------------------0---------------0---|     \
A|--3--------3-------|-3-------3------|-3---0-------0---2-----------0---2-------|      \
E|-------------------|----------------|---------3---------------3---------------|       \
                                                                                          x2
e|-------------------|----------------|-----------------------------------------|       /
B|-----1---1---1---1-|---1---1---1--1-|---1---0---0---0---0---0---0---0---0---0-|      /
G|----0---0---0---0--|--0---0---0--0--|--0---0---0---0---0---0---0---0---0---0--|     /
D|-------2-------2---|-----2------2---|---------------------0---2---0-----------|    /
A|--3--------3-------|-3-------3------|-3---0-------0---2--------------2----0---|   /
E|-------------------|----------------|---------3-------------------------------|  /


e|----------2-|
B|-------3----|
G|-----2---2--|
D|--0---------|
A|------------|
E|------------|

Chorus:
e|--3-3-3-3-3-3-3-|-0-0-0-0-0-0-0-|-3-3-3-3-3-3-3-|-0-0-0-0-0-0-0-|
B|--0-0-0-0-0-0-0-|-1-1-1-1-1-1-1-|-2-2-2-2-2-2-2-|-0-0-0-0-0-0-0-|
G|--0-0-0-0-0-0-0-|-0-0-0-0-0-0-0-|-3-3-3-3-3-3-3-|-0-0-0-0-0-0-0-|
D|--0-0-0-0-0-0-0-|-2-2-2-2-2-2-2-|-0-0-0-0-0-0-0-|-2-2-2-2-2-2-2-|
A|--2-2-2-2-2-2-2-|-3-3-3-3-3-3-3-|---------------|-2-2-2-2-2-2-2-|
E|--3-3-3-3-3-3-3-|---------------|---------------|-0-0-0-0-0-0-0-|

e|--3-3-3-3-3-3-3-|-0-0-0-0-0-0-0-|-3-3-3-3-3-3-3-|-3-3-3-3-3-3-3-|
B|--0-0-0-0-0-0-0-|-1-1-1-1-1-1-1-|-2-2-2-2-2-2-2-|-0-0-0-0-0-0-0-|
G|--0-0-0-0-0-0-0-|-0-0-0-0-0-0-0-|-3-3-3-3-3-3-3-|-0-0-0-0-0-0-0-|
D|--0-0-0-0-0-0-0-|-2-2-2-2-2-2-2-|-0-0-0-0-0-0-0-|-0-0-0-0-0-0-0-|
A|--2-2-2-2-2-2-2-|-3-3-3-3-3-3-3-|---------------|-2-2-2-2-2-2-2-|
E|--3-3-3-3-3-3-3-|---------------|---------------|-3-3-3-3-3-3-3-|

e|--0-0-0-0-0-0-0-|-3-3-3-3-3-3-3-|-3-3-3-3-3-3-3-|-3-3-3-3-3-3-3-|
B|--1-1-1-1-1-1-1-|-0-0-0-0-0-0-0-|-2-2-2-2-2-2-2-|-2-2-2-2-2-2-2-|
G|--0-0-0-0-0-0-0-|-0-0-0-0-0-0-0-|-3-3-3-3-3-3-3-|-3-3-3-3-3-3-3-|
D|--2-2-2-2-2-2-2-|-0-0-0-0-0-0-0-|-0-0-0-0-0-0-0-|-0-0-0-0-0-0-0-|  x4
A|--3-3-3-3-3-3-3-|-2-2-2-2-2-2-2-|---------------|---------------|
E|----------------|-3-3-3-3-3-3-3-|---------------|---------------|

Outro:
e|-----------------|-----------------|-----------------|-------------0------|
B|---1---1---1---1-|---1---1---1-----|---0---0---0---0-|---0---0---1--------|
G|--0---0---0---0--|--0---0---0------|--0---0---0---0--|--0---0---0---------|  x2
D|-----2-------2---|-----2-----0h2---|-------------0---|-----0---2----------|
A|-3-------3-------|-3-------3-------|-----0---2-------|-3------------------|
E|-----------------|-----------------|-3---------------|--------------------|
Tap to rate this tab
# A B C D E F G H I J K L M N O P Q R S T U V W X Y Z