Song name
# A B C D E F G H I J K L M N O P Q R S T U V W X Y Z

Bastille - Pompeii chords

Highlighted       Show chord diagrams
          -------- BASTILLE : Pompeii (Acoustic) --------------------------|
---------------------------------------------------------------------------|

Standard tuning. No Capo.

 Chords

  E|--5----5----2----0----|
  A|--5----7----4----2----|
  D|--7----7----4----2----|
  G|--7----6----2----1----|
  B|--7----5----2----0----|
  e|--5----5----2----0----|

     (D)  (A) (F#M) (E)



Intro (repeat 2x) + Verse 1

E|-10---------5-----------2--------0-------------------------------------|
A|-----------------------------------------------------------------------|
D|-----------------------------------------------------------------------|
G|-11---------6-----------2--------1-------------------------------------|
B|-----------------------------------------------------------------------|
e|-----------------------------------------------------------------------|

   I was left,to my own devi......ices .....

 [Intro]

 [Verse 1]

   I was left to my own devices
   Many days fell away with nothing to show
   And the walls kept tumbling down
   In the city that we love
   Great clouds roll over the hills
   Bringing darkness from above

 [Chorus]
                         (D)
    But if you close your eyes,
            (A)
    Does it almost feel like
    (F#M)              (E)
    Nothing changed at all?
                         (D)
    And if you close your eyes,
            (A)
    Does it almost feel like
    (F#M)               (E)
    You've been here before?

         (D)            (A)            (E)
    How am I gonna be an optimist about this?
    How am I gonna be an optimist about this?

 Verse 2

E|-10-10---10---10---10---5-5---5---5---5---2-2---2---2---2---0-0---0---0---0----|
A|-------------------------------------------------------------------------------|
D|-------------------------------------------------------------------------------|
G|-11---11---11---11------6---6---6---6-----2---2---2---2-----1---1---1---1------|
B|-------------------------------------------------------------------------------|
e|-------------------------------------------------------------------------------|


 [Verse 2]

   We were caught up and lost in all of our vices
   In your pose as the dust settles around us
   And the walls kept tumbling down
   In the city that we love
   Great clouds roll over the hills
   Bringing darkness from above

 [Chorus]
                       (D)
    But if you close your eyes,
            (A)
    Does it almost feel like
    (F#M)              (E)
    Nothing changed at all?
                          (D)
    And if you close your eyes,
             (A)
    Does it almost feel like
    (F#M)              (E)
    You've been here before?

          (D)            (A)             (E)
    How am I gonna be an optimist about this?
    How am I gonna be an optimist about this?

 [Bridge] Chords or Intro Tabs

 (D)               (A)      (F#M)        (E)
  Oh where do we begin? The rubble or our sins?
  Oh where do we begin? The rubble or our sins?

 [Verse 3]
           (D)                 (A)
    And the walls kept tumbling down
                        (F#M)  (E)
    In the city that we love
           (D)                 (A)
    Great clouds roll over the hills
                           (F#M)  (E)
    Bringing darkness from above

  [Chorus]
                         (D)
    But if you close your eyes,
            (A)
    Does it almost feel like
    (F#M)              (E)
    Nothing changed at all?
                          (D)
    And if you close your eyes,
            (A)
    Does it almost feel like
    (F#M)             (E)
    You've been here before?

          (D)            (A)            (E)
    How am I gonna be an optimist about this?
    How am I gonna be an optimist about this?


                          (D)
    But if you close your eyes,
            (A)
    Does it almost feel like
    (F#M)              (E)
    Nothing changed at all?
                          (D)
    And if you close your eyes,
            (A)
    Does it almost feel like
    (F#M)             (E)
    You've been here before?


    (D)        (A)
    E'oh E'oh, E'oh E'oh
    (F#M)      (E)
    E'oh E'oh, E'oh E'oh
Tap to rate this tab
 
# A B C D E F G H I J K L M N O P Q R S T U V W X Y Z