Song name
# A B C D E F G H I J K L M N O P Q R S T U V W X Y Z

Bastille - No Angels tab

2-2-2-2-9--9--9--9--4-4-4-4-2-2-2-2-9--9--9--9--4-4-4-4-2-2-2-2-9--9--9--9---|
-3-3-3-3-10-10-10-10-5-5-5-5-3-3-3-3-10-10-10-10-5-5-5-5-3-3-3-3-10-10-10-10-|
-----------------------------------------------------------------------------|
-----------------------------------------------------------------------------|
-----------------------------------------------------------------------------|
-----------------------------------------------------------------------------|

2-2-2-2-9--9--9--9--4-4-4-4-2-2-2-2-9--9--9--9--4-4-4-4-2-2-2-2-9--9--9--9---|
-3-3-3-3-10-10-10-10-5-5-5-5-3-3-3-3-10-10-10-10-5-5-5-5-3-3-3-3-10-10-10-10-|
-----------------------------------------------------------------------------|
-----------------------------------------------------------------------------|
-----------------------------------------------------------------------------|
-----------------------------------------------------------------------------|




repeat this for the whole song
Tap to rate this tab
# A B C D E F G H I J K L M N O P Q R S T U V W X Y Z