Guitaretab - guitar tabs
Song name
# A B C D E F G H I J K L M N O P Q R S T U V W X Y Z

Bat For Lashes - Whats A Girl To Do tab

Last summer Bat For Lashes was the opening act for Radiohead during their concert in 
and I got to like her music, she's quite an unique gal and her sound is so melodic, yet so 
This is (I think) Bat For Lashes's most known single. Really good song and also, 
really easy. Enjoy!

-------------------------------------------------------------------------------
			     WHAT'S A GIRL TO DO? - Bat For Lashes
-------------------------------------------------------------------------------
Tabbed by: Gustavo Collado
Email: ltavo_87@hotmail.com

Tuning: EADGBe

Intro/Verse 1
(We walked arm in arm, but I didn't feel his touch...)
e|----------------------------|
B|-12----12-13-12-12----12-13-|
G|----12-------------12-------|X20
D|----------------------------|
A|----------------------------|
E|----------------------------|
[ Tab from: http://www.guitaretab.com/b/bat-for-lashes/181193.html ]
Chorus 1
(When you love someone, but the thrill is gone...)
e|----------------------------|
B|-12----12-13-12-12----12-13-|
G|----12-------------12-------|X20
D|----------------------------|
A|----------------------------|
E|----------------------------|

Verse 2 Part 1
(He said he'd take me away, that we'd work things out...)
[Organ]
e|--------------|
B|--------------|
G|--------------|X2
D|-9r-7r-5r-4r--|
A|-x--x--x--x---|
E|-7r-5r-3r-2r--|

[Harp sound, it goes something like this, not exactly though]
e|---------------12-|
B|------------15----|
G|---------14-------|
D|------12----------|
A|---12-------------|
E|-0----------------|

Verse 2 Part 2
(Over the times we've shared, it's all blackened out...)
e|----------------------------|
B|-12----12-13-12-12----12-13-|
G|----12-------------12-------|X10
D|----------------------------|
A|----------------------------|
E|----------------------------|

Chorus 2
(When you love someone, but the thrill is gone...)
e|----------------------------|
B|-12----12-13-12-12----12-13-|
G|----12-------------12-------|X20
D|----------------------------|
A|----------------------------|
E|----------------------------|

Outro
(What's a girl to do? Ha Ha, What's a girl to do?...)
[Only drums and voice]

Bat For Lashes' official site: http://www.batforlashes.com/
Related for Whats A Girl To Do tab
Advertisement will be closed in 10 seconds