Song name
# A B C D E F G H I J K L M N O P Q R S T U V W X Y Z

Bat For Lashes - Horse And I tab

e|----------------------------------------------------------------|
B|----------------------------------------------------------------|
G|----------------------------------------------------------------|
D|-2-2--2-2--2--2-2--2-2--2---2-2---2-2--2---2-2---2-2---2--------|  verse
A|0-0-0--0--0--0-0-0--0--0---0-0-0---0--0---0-0-0---0---0---------|
E|----------------------------------------------------------------|

e|--------------------------------------------------------|
B|--------------------------------------------------------|
G|--------------------------------------------------------|
D|--------------------------------------------------------|  verse
A|--3-3--3-3--3--3-3----5--5-5----------------------------|
E|-1-1-1--1--1--1-1-1--3--3-3-----------------------------|

"they sang to me..."
e|-----------------------------------------------------------------|
B|-----------------------------------------------------------------|
G|-----------------------------------------------------------------| x2
D|--5-5--5-5--5---7-7--7-7--7---4-4--4-4--4---5-5--5-5--5----------|
A|-3-3-3--3--3-3-5-5-5--5--5-5-2-2-2--2--2-2-3-3-3--3--3-3---------|
E|-----------------------------------------------------------------|


I tabbed the Harpsichord for the guitar
Tap to rate this tab
 
# A B C D E F G H I J K L M N O P Q R S T U V W X Y Z