Song name
# A B C D E F G H I J K L M N O P Q R S T U V W X Y Z

Bates - Poor Boy chords

Highlighted       Show chord diagrams
-----------------------------------------------------------------------------
			     POOR BOY - The Bates
-----------------------------------------------------------------------------
Tabbed by: Dispo2000
Email: sonator.booking@googlemail.com

B|-5-5--6--5--------|
G|-5-5--5--5-5------| C - Riff
D|-----------5------|

B|-12-12--13--12----|
G|-12-12--12--12-12-| G - Riff
D|---------------12-|

B|-10-10--11--10----|
G|-10-10--10--10-10-| F - Riff
D|---------------10-|

INTRO: (4x C Riff)

C                                             G
When I was born you know I couldn't speak and go
                      F                         G
My mother worked each day And she learned me to say
C                                              G
Mother and father and son Sister and uncle are fun
                      F                        G
And she learned me to say Life is so hard each day

Am                         C
Poor Boy poor boy you must know 
Am                          C
Poor boy the life is a hard road
A#                         D#
Poor boy poor boy you must say 
C                    G
Life is very hard to stay

OUTRO: (4x C Riff)
Tap to rate this tab
# A B C D E F G H I J K L M N O P Q R S T U V W X Y Z