Guitaretab - guitar tabs
Song name
# A B C D E F G H I J K L M N O P Q R S T U V W X Y Z

Bathory - Hammerheart tab

HAMMERHEART - Bathory

Tabbed by – Limble (http://www.youtube.com/user/LimblePwns)
Tuning: E Standard

Verse 1
 Now the wind…                     hardly a glimpse…           And the wise…
e|0-----------------|--------------|---------------------------|---------------------|
B|0-----------------|--------------|---------------------------|---------------------|
G|0-----------------|--------------|---------------------------|---------------------|
D|0-----------------|--------------|--3------------------------|---------------3-3h5-|
A|0---1-3—-6-5—-1---|---1-3--6-5---|6---6/5-5p3—3h5p3-1h3p1----|---1-3--6-5--6-------|
E|0-3-------------3-|-3----------6-|-------------------------3-|-3---------6---------| 

                         For the ones who….
e|------------------------|--------------------------|-----------------------|
B|------------------------|--------------------------|-----------------------|
G|------------------------|-3------------------------|-3---------------3-3h5-|
D|3h5-3h5p3-----3-5p3-----|---6p5-3-—3—-3---3h5-3----|---6p5-3--3--3-5-------|
A|----—-----6-6-------6r6-|---------------6--------1-|---------------—-------|
E|------------------------|--------------------------|-----------------------|
[ Tab from: http://www.guitaretab.com/b/bathory/112928.html ]
 I ask of thee…
e|-------------------|---------------------------0|
B|------3-4~-3~------|-4~------------------------0|
G|-5--5---------5~-3~|------------------3-3~-(15)0|
D|-------------------|----5p3-3---3--/5----------0| x3
A|-------------------|----------6----------------0|
E|-------------------|---------------------------0|

Verse 2
For when great clouds…
Verse 3
For all you who knew me near..

 The vast gates to hall…    Shall stand wide…
e|-------------------------|-----------------|-------------|--------------|
B|----------/4-3-----------|----------/4-3---|-4-6-4-3-3---|---3----------|
G|---3-3h5~------3---------|---3-3h5~------3-|-----------5-|-5---5~-3~----|
D|-5---------------5-3h5~--|-5---------------|-------------|------------5-|
A|-------------------------|-----------------|-------------|--------------|
E|-------------------------|-----------------|-------------|--------------|

 Climax!
 And Oden shall hail us                     HAMMERHEART!!!!!!!
e|---------------11-10----|---13-15~--15~-|-15-13-11~~~hold-11-10~~~~-|---3--||
B|----11-11/13~--------11/|16-------------|-------------|-------------|---4--||
G|-12---------------------|---------------|-------------|-------------|---3--||
D|------------------------|---------------|-------------|-------------|---1--||
A|------------------------|---------------|-------------|-------------|---1--||
E|------------------------|---------------|-------------|-------------|------||

h = hammer-on
p = pull-off
/ = slide up
~ = vibrato
( ) = tapped harmonic


Related for Hammerheart tab
Hammerheart chords by Bathory