Song name
# A B C D E F G H I J K L M N O P Q R S T U V W X Y Z

Bathory - The Wheel Of Sun tab

Song Title: The Wheel of Sun
Band Name: Bathory
Album: Nordland II
Label: Black Mark records
Composed by: Quorthon (R.I.P.)
Transcribed by: Alex Polgar

Sorry this is only the intro, I could only figure out the acoustic part and once the 
part came i couldn't hear a single chord because my recording sucked.

Guitar (Acoustic) EBGDAe (Standard Tuning)

E|-4-5p4-2-----------------------4-5p4-2--------6-7p6-4-/11-/11-|
B|-2-----2-/2-/2--4-5p4-5--------2-----2-/2-/2--7-----5---------|
G|-1-----1--------4-----6--------1-----1--------4-----6---------|
D|----------------1-----6-/6-/6---------------------------------|
A|--------------------------------------------------------------|
E|--------------------------------------------------------------|

E|-4-5h7-2--------5-----4-/11-/11--4-5h7-2--------7------9-|
B|-2-----2-/2-/2--5-5p4-2----------2-----2-/2-/2--9-10p9-9-|
G|-1-----1--------6-----1----------1-----1--------6------6-|
D|---------------------------------------------------------|
A|---------------------------------------------------------|
E|---------------------------------------------------------|
Tap to rate this tab
 
# A B C D E F G H I J K L M N O P Q R S T U V W X Y Z