Song name
# A B C D E F G H I J K L M N O P Q R S T U V W X Y Z

Bathory - Vinland tab

band: Bathory
song: Vinland
album: Nordland II
year: 2003
genre: viking metal

posting this because the other tab for this song is in the wrong key and wrong tuning. 
so here it is, the full song in its proper tuning (without disparaging remarks about 
Quorthon, lol)

tuning - drop C (C D C F A D)

(main riff)
D|------------------------------------------------------|
A|------------------------------------------------------|
F|------------------------------------------------------|
C|---0-3-2--2---0-3-2--2--2-0---0-3-2--2--0--7--0-3-3---|
G|---0-3-2--2---0-3-2--2--2-0---0-3-2--2--0--7--0-3-3---|
C|---0-3-2--2---0-3-2--2--2-0---0-3-2--2--0--7--0-3-3---|
     .          .               .               .

D|------------------------------------------------------|
A|------------------------------------------------------|
F|------------------------------------------------------|
C|---0-3-2--2---0-3-2--2--2-0---0-3-2--2--0--7--0-3-3---|
G|---0-3-2--2---0-3-2--2--2-0---0-3-2--2--0--7--0-3-3---|
C|---0-3-2--2---0-3-2--2--2-0---0-3-2--2--0--7--0-3-3---|
     .          .               .               .

D|------------------------------------------------------|
A|------------------------------------------------------|
F|------------------------------------------------------|
C|---0-3-2--2---0-3-2--2--2-0---0-3-2--2--0--7--0-3-3---|
G|---0-3-2--2---0-3-2--2--2-0---0-3-2--2--0--7--0-3-3---|
C|---0-3-2--2---0-3-2--2--2-0---0-3-2--2--0--7--0-3-3---|

D|---------------------------------------------------------|
A|---------------------------------------------------------|
F|--------------------------------------------------7--5---|
C|---0-3-2--2---0-3-2--2--2-0---0-3-2--2--0--7------7--5---|
G|---0-3-2--2---0-3-2--2--2-0---0-3-2--2--0--7------5--3---|
C|---0-3-2--2---0-3-2--2--2-0---0-3-2--2--0--7--0-0--------|
                                                . .

(verse A)
D|---------------------------------------------------------------------|
A|---------------------------------------------------------------------|
F|---------------------------------------------------------------------|
C|---3-3-3-3-3-3-3-3-3-3-3-3-3-3-3-3-3-3-3-3-3-3-3-3-3-3-3-3-3-3-3-3---|
G|---3-3-3-3-3-3-3-3-3-3-3-3-3-3-3-3-3-3-3-3-3-3-3-3-3-3-3-3-3-3-3-3---|
C|---3-3-3-3-3-3-3-3-3-3-3-3-3-3-3-3-3-3-3-3-3-3-3-3-3-3-3-3-3-3-3-3---|

D|---------------------------------------------------------------------|
A|---------------------------------------------------------------------|
F|---------------------------------------------------------------------|
C|---0-0-0-0-0-0-0-0-0-0-0-0-0-0-0-0-0-0-0-0-0-0-0-0-0-0-0-0-2-2-2-2---|
G|---0-0-0-0-0-0-0-0-0-0-0-0-0-0-0-0-0-0-0-0-0-0-0-0-0-0-0-0-2-2-2-2---|
C|---0-0-0-0-0-0-0-0-0-0-0-0-0-0-0-0-0-0-0-0-0-0-0-0-0-0-0-0-2-2-2-2---|

D|---------------------------------------------------------------------|
A|---------------------------------------------------------------------|
F|---------------------------------------------------------------------|
C|---3-3-3-3-3-3-3-3-3-3-3-3-3-3-3-3-3-3-3-3-3-3-3-3-3-3-3-3-3-3-3-3---|
G|---3-3-3-3-3-3-3-3-3-3-3-3-3-3-3-3-3-3-3-3-3-3-3-3-3-3-3-3-3-3-3-3---|
C|---3-3-3-3-3-3-3-3-3-3-3-3-3-3-3-3-3-3-3-3-3-3-3-3-3-3-3-3-3-3-3-3---|

D|---------------------------------------------------------------------|
A|---------------------------------------------------------------------|
F|-------------------------------------------------------------7---5---|
C|---0-0-0-0-0-0-0-0-0-0-0-0-0-0-0-0-0-0-0-0-0-0-0-0-0-0-0-0---7---5---|
G|---0-0-0-0-0-0-0-0-0-0-0-0-0-0-0-0-0-0-0-0-0-0-0-0-0-0-0-0---5---3---|
C|---0-0-0-0-0-0-0-0-0-0-0-0-0-0-0-0-0-0-0-0-0-0-0-0-0-0-0-0-----------|

(verse B)
D|--------------------------------------------------------------|
A|--------------------------------------------------------------|
F|---3--3-3-3--3-3-3--3-3-3---5-----7-7--------7--7-7-7--7--5---|
C|---3--3-3-3--3-3-3--3-3-3---5--0--7-7--------7--7-7-7--7--5---|
G|---1--1-1-1--1-1-1--1-1-1---3--0--5-5--------5--5-5-5--5--3---|
C|--------------------------2----0-------0-0-0------------------|
                            .            . . .

D|--------------------------------------------------------------|
A|--------------------------------------------------------------|
F|---3--3-3-3--3-3-3--3-3-3---5--7--7-7--------7--7-7-7--7--5---|
C|---3--3-3-3--3-3-3--3-3-3---5--7--7-7--------7--7-7-7--7--5---|
G|---1--1-1-1--1-1-1--1-1-1---3--5--5-5--------5--5-5-5--5--3---|
C|--------------------------2------------0-0-0------------------|
                            .            . . .

D|--------------------------------------------------------------|
A|--------------------------------------------------------------|
F|---3--3-3-3--3-3-3--3-3-3---5-----7-7--------7--7-7-7--7--5---|
C|---3--3-3-3--3-3-3--3-3-3---5--0--7-7--------7--7-7-7--7--5---|
G|---1--1-1-1--1-1-1--1-1-1---3--0--5-5--------5--5-5-5--5--3---|
C|--------------------------2----0-------0-0-0------------------|
                            .            . . .

D|--------------------------------|
A|--------------------------------|
F|---3--3-3-3--3-3-3--3-3-3---5---|
C|---3--3-3-3--3-3-3--3-3-3---5---|
G|---1--1-1-1--1-1-1--1-1-1---3---|
C|--------------------------2-----|
                            .

(pre-chorus)
D|---------------------------------------------------------------------|
A|---------------------------------------------------------------------|
F|---2-2-2-2-2-2-2-2-2-2-2-2-2-2-2-2-2-2-2-2-2-2-2-2-2-2-2-2-2-2-2-2---|
C|---2-2-2-2-2-2-2-2-2-2-2-2-2-2-2-2-2-2-2-2-2-2-2-2-2-2-2-2-2-2-2-2---|
G|---0-0-0-0-0-0-0-0-0-0-0-0-0-0-0-0-0-0-0-0-0-0-0-0-0-0-0-0-0-0-0-0---|
C|---------------------------------------------------------------------|


(chorus)
D|-------------------------------------------------------------------|
A|-------------------------------------------------------------------|
F|----------------------------7--5--3-3-3-3---------5-5-5-3----------|
C|---0-0-0-0-0-0-0-0-0-0-0-0--7--5--3-3-3-3-3-3-3-3-5-5-5-3-3h5--3---|
G|---0-0-0-0-0-0-0-0-0-0-0-0--5--3--1-1-1-1-3-3-3-3-3-3-3-1-3h5--3---|
C|---0-0-0-0-0-0-0-0-0-0-0-0----------------3-3-3-3---------3h5--3---|

D|-------------------------------------------------------------------|
A|-------------------------------------------------------------------|
F|----------------------------7--5--3-3-3-3---------5-5-5-3----------|
C|---0-0-0-0-0-0-0-0-0-0-0-0--7--5--3-3-3-3-3-3-3-3-5-5-5-3-3h5--3---|
G|---0-0-0-0-0-0-0-0-0-0-0-0--5--3--1-1-1-1-3-3-3-3-3-3-3-1-3h5--3---|
C|---0-0-0-0-0-0-0-0-0-0-0-0----------------3-3-3-3---------3h5--3---|

D|-------------------------------------------------------------------|
A|-------------------------------------------------------------------|
F|----------------------------7--5--3-3-3-3---------5-5-5-3----------|
C|---0-0-0-0-0-0-0-0-0-0-0-0--7--5--3-3-3-3-3-3-3-3-5-5-5-3-3h5--3---|
G|---0-0-0-0-0-0-0-0-0-0-0-0--5--3--1-1-1-1-3-3-3-3-3-3-3-1-3h5--3---|
C|---0-0-0-0-0-0-0-0-0-0-0-0----------------3-3-3-3---------3h5--3---|

D|-------------------------------------------------------------------|
A|-------------------------------------------------------------------|
F|----------------------------7--5--3-3-3-3---------5-5-5-3----------|
C|---0-0-0-0-0-0-0-0-0-0-0-0--7--5--3-3-3-3-3-3-3-3-5-5-5-3-3h5--3---|
G|---0-0-0-0-0-0-0-0-0-0-0-0--5--3--1-1-1-1-3-3-3-3-3-3-3-1-3h5--3---|
C|---0-0-0-0-0-0-0-0-0-0-0-0----------------3-3-3-3---------3h5--3---|

(return to verse)
D|------------------------------------------------------------------|
A|------------------------------------------------------------------|
F|---2-2-2-2-2-2-2-2-2-2-2-2-2-2-2-2-2-2-2-2-2-2-2-2-2/7\2---7--5---|
C|---2-2-2-2-2-2-2-2-2-2-2-2-2-2-2-2-2-2-2-2-2-2-2-2-2/7\2---7--5---|
G|---0-0-0-0-0-0-0-0-0-0-0-0-0-0-0-0-0-0-0-0-0-0-0-0-0/5\0---5--3---|
C|---------------------------------------------------------0--------|
                                                           .

(verse A)
D|---------------------------------------------------------------------|
A|---------------------------------------------------------------------|
F|---------------------------------------------------------------------|
C|---3-3-3-3-3-3-3-3-3-3-3-3-3-3-3-3-3-3-3-3-3-3-3-3-3-3-3-3-3-3-3-3---|
G|---3-3-3-3-3-3-3-3-3-3-3-3-3-3-3-3-3-3-3-3-3-3-3-3-3-3-3-3-3-3-3-3---|
C|---3-3-3-3-3-3-3-3-3-3-3-3-3-3-3-3-3-3-3-3-3-3-3-3-3-3-3-3-3-3-3-3---|

D|---------------------------------------------------------------------|
A|---------------------------------------------------------------------|
F|---------------------------------------------------------------------|
C|---0-0-0-0-0-0-0-0-0-0-0-0-0-0-0-0-0-0-0-0-0-0-0-0-0-0-0-0-2-2-2-2---|
G|---0-0-0-0-0-0-0-0-0-0-0-0-0-0-0-0-0-0-0-0-0-0-0-0-0-0-0-0-2-2-2-2---|
C|---0-0-0-0-0-0-0-0-0-0-0-0-0-0-0-0-0-0-0-0-0-0-0-0-0-0-0-0-2-2-2-2---|

D|---------------------------------------------------------------------|
A|---------------------------------------------------------------------|
F|---------------------------------------------------------------------|
C|---3-3-3-3-3-3-3-3-3-3-3-3-3-3-3-3-3-3-3-3-3-3-3-3-3-3-3-3-3-3-3-3---|
G|---3-3-3-3-3-3-3-3-3-3-3-3-3-3-3-3-3-3-3-3-3-3-3-3-3-3-3-3-3-3-3-3---|
C|---3-3-3-3-3-3-3-3-3-3-3-3-3-3-3-3-3-3-3-3-3-3-3-3-3-3-3-3-3-3-3-3---|

D|---------------------------------------------------------------------|
A|---------------------------------------------------------------------|
F|-------------------------------------------------------------7---5---|
C|---0-0-0-0-0-0-0-0-0-0-0-0-0-0-0-0-0-0-0-0-0-0-0-0-0-0-0-0---7---5---|
G|---0-0-0-0-0-0-0-0-0-0-0-0-0-0-0-0-0-0-0-0-0-0-0-0-0-0-0-0---5---3---|
C|---0-0-0-0-0-0-0-0-0-0-0-0-0-0-0-0-0-0-0-0-0-0-0-0-0-0-0-0-----------|

(verse B)
D|--------------------------------------------------------------|
A|--------------------------------------------------------------|
F|---3--3-3-3--3-3-3--3-3-3---5-----7-7--------7--7-7-7--7--5---|
C|---3--3-3-3--3-3-3--3-3-3---5--0--7-7--------7--7-7-7--7--5---|
G|---1--1-1-1--1-1-1--1-1-1---3--0--5-5--------5--5-5-5--5--3---|
C|--------------------------2----0-------0-0-0------------------|
                            .            . . .

D|--------------------------------------------------------------|
A|--------------------------------------------------------------|
F|---3--3-3-3--3-3-3--3-3-3---5--7--7-7--------7--7-7-7--7--5---|
C|---3--3-3-3--3-3-3--3-3-3---5--7--7-7--------7--7-7-7--7--5---|
G|---1--1-1-1--1-1-1--1-1-1---3--5--5-5--------5--5-5-5--5--3---|
C|--------------------------2------------0-0-0------------------|
                            .            . . .

D|--------------------------------------------------------------|
A|--------------------------------------------------------------|
F|---3--3-3-3--3-3-3--3-3-3---5-----7-7--------7--7-7-7--7--5---|
C|---3--3-3-3--3-3-3--3-3-3---5--0--7-7--------7--7-7-7--7--5---|
G|---1--1-1-1--1-1-1--1-1-1---3--0--5-5--------5--5-5-5--5--3---|
C|--------------------------2----0-------0-0-0------------------|
                            .            . . .

D|--------------------------------|
A|--------------------------------|
F|---3--3-3-3--3-3-3--3-3-3---5---|
C|---3--3-3-3--3-3-3--3-3-3---5---|
G|---1--1-1-1--1-1-1--1-1-1---3---|
C|--------------------------2-----|
                            .

(pre-chorus)
D|---------------------------------------------------------------------|
A|---------------------------------------------------------------------|
F|---2-2-2-2-2-2-2-2-2-2-2-2-2-2-2-2-2-2-2-2-2-2-2-2-2-2-2-2-2-2-2-2---|
C|---2-2-2-2-2-2-2-2-2-2-2-2-2-2-2-2-2-2-2-2-2-2-2-2-2-2-2-2-2-2-2-2---|
G|---0-0-0-0-0-0-0-0-0-0-0-0-0-0-0-0-0-0-0-0-0-0-0-0-0-0-0-0-0-0-0-0---|
C|---------------------------------------------------------------------|

(chorus)
D|-------------------------------------------------------------------|
A|-------------------------------------------------------------------|
F|----------------------------7--5--3-3-3-3---------5-5-5-3----------|
C|---0-0-0-0-0-0-0-0-0-0-0-0--7--5--3-3-3-3-3-3-3-3-5-5-5-3-3h5--3---|
G|---0-0-0-0-0-0-0-0-0-0-0-0--5--3--1-1-1-1-3-3-3-3-3-3-3-1-3h5--3---|
C|---0-0-0-0-0-0-0-0-0-0-0-0----------------3-3-3-3---------3h5--3---|

D|-------------------------------------------------------------------|
A|-------------------------------------------------------------------|
F|----------------------------7--5--3-3-3-3---------5-5-5-3----------|
C|---0-0-0-0-0-0-0-0-0-0-0-0--7--5--3-3-3-3-3-3-3-3-5-5-5-3-3h5--3---|
G|---0-0-0-0-0-0-0-0-0-0-0-0--5--3--1-1-1-1-3-3-3-3-3-3-3-1-3h5--3---|
C|---0-0-0-0-0-0-0-0-0-0-0-0----------------3-3-3-3---------3h5--3---|

D|-------------------------------------------------------------------|
A|-------------------------------------------------------------------|
F|----------------------------7--5--3-3-3-3---------5-5-5-3----------|
C|---0-0-0-0-0-0-0-0-0-0-0-0--7--5--3-3-3-3-3-3-3-3-5-5-5-3-3h5--3---|
G|---0-0-0-0-0-0-0-0-0-0-0-0--5--3--1-1-1-1-3-3-3-3-3-3-3-1-3h5--3---|
C|---0-0-0-0-0-0-0-0-0-0-0-0----------------3-3-3-3---------3h5--3---|

D|-------------------------------------------------------------------|
A|-------------------------------------------------------------------|
F|----------------------------7--5--3-3-3-3---------5-5-5-3----------|
C|---0-0-0-0-0-0-0-0-0-0-0-0--7--5--3-3-3-3-3-3-3-3-5-5-5-3-3h5--3---|
G|---0-0-0-0-0-0-0-0-0-0-0-0--5--3--1-1-1-1-3-3-3-3-3-3-3-1-3h5--3---|
C|---0-0-0-0-0-0-0-0-0-0-0-0----------------3-3-3-3---------3h5--3---|

(main riff)
D|------------------------------------------------------|
A|------------------------------------------------------|
F|------------------------------------------------------|
C|---0-3-2--2---0-3-2--2--2-0---0-3-2--2--0--7--0-3-3---|
G|---0-3-2--2---0-3-2--2--2-0---0-3-2--2--0--7--0-3-3---|
C|---0-3-2--2---0-3-2--2--2-0---0-3-2--2--0--7--0-3-3---|
     .          . .             . .

D|--------------------------------------------|
A|--------------------------------------------|
F|--------------------------------------------|
C|---0-3-2--2---0-3-2--2--2-0---0-3-2--2--0---|
G|---0-3-2--2---0-3-2--2--2-0---0-3-2--2--0---|
C|---0-3-2--2---0-3-2--2--2-0---0-3-2--2--0---|
     .          .               .

(solo)
D|------------------------------------------------------15-17~---|
A|------------15----------------15----------------15-17----------|
F|---14-16-17----17-16-14-16-17----17-16-14-16-17----------------|
C|---------------------------------------------------------------|
G|---------------------------------------------------------------|
C|---------------------------------------------------------------|

D|------------------------------------------------------17b19~-17~---|
A|------------15----------------15----------------15-17--------------|
F|---14-16-17----17-16-14-16-17----17-16-14-16-17--------------------|
C|-------------------------------------------------------------------|
G|-------------------------------------------------------------------|
C|-------------------------------------------------------------------|

(rhythm - play under solo)
D|---------------------------------------------------------------------|
A|---------------------------------------------------------------------|
F|---------------------------------------------------------------------|
C|---7-7-7-7-7-7-7-7-5-5-5-5-5-5-5-5-3-3-3-3-3-3-3-3-3-3-3-3-3-3-3-3---|
G|---7-7-7-7-7-7-7-7-5-5-5-5-5-5-5-5-3-3-3-3-3-3-3-3-3-3-3-3-3-3-3-3---|
C|---7-7-7-7-7-7-7-7-5-5-5-5-5-5-5-5-3-3-3-3-3-3-3-3-3-3-3-3-3-3-3-3---|

(chorus)
D|-------------------------------------------------------------------|
A|-------------------------------------------------------------------|
F|----------------------------7--5--3-3-3-3---------5-5-5-3----------|
C|---0-0-0-0-0-0-0-0-0-0-0-0--7--5--3-3-3-3-3-3-3-3-5-5-5-3-3h5--3---|
G|---0-0-0-0-0-0-0-0-0-0-0-0--5--3--1-1-1-1-3-3-3-3-3-3-3-1-3h5--3---|
C|---0-0-0-0-0-0-0-0-0-0-0-0----------------3-3-3-3---------3h5--3---|

D|-------------------------------------------------------------------|
A|-------------------------------------------------------------------|
F|----------------------------7--5--3-3-3-3---------5-5-5-3----------|
C|---0-0-0-0-0-0-0-0-0-0-0-0--7--5--3-3-3-3-3-3-3-3-5-5-5-3-3h5--3---|
G|---0-0-0-0-0-0-0-0-0-0-0-0--5--3--1-1-1-1-3-3-3-3-3-3-3-1-3h5--3---|
C|---0-0-0-0-0-0-0-0-0-0-0-0----------------3-3-3-3---------3h5--3---|

D|-------------------------------------------------------------------|
A|-------------------------------------------------------------------|
F|----------------------------7--5--3-3-3-3---------5-5-5-3----------|
C|---0-0-0-0-0-0-0-0-0-0-0-0--7--5--3-3-3-3-3-3-3-3-5-5-5-3-3h5--3---|
G|---0-0-0-0-0-0-0-0-0-0-0-0--5--3--1-1-1-1-3-3-3-3-3-3-3-1-3h5--3---|
C|---0-0-0-0-0-0-0-0-0-0-0-0----------------3-3-3-3---------3h5--3---|

D|-------------------------------------------------------------------|
A|-------------------------------------------------------------------|
F|----------------------------7--5--3-3-3-3---------5-5-5-3----------|
C|---0-0-0-0-0-0-0-0-0-0-0-0--7--5--3-3-3-3-3-3-3-3-5-5-5-3-3h5--3---|
G|---0-0-0-0-0-0-0-0-0-0-0-0--5--3--1-1-1-1-3-3-3-3-3-3-3-1-3h5--3---|
C|---0-0-0-0-0-0-0-0-0-0-0-0----------------3-3-3-3---------3h5--3---|

(main riff)
D|------------------------------------------------------|
A|------------------------------------------------------|
F|------------------------------------------------------|
C|---0-3-2--2---0-3-2--2--2-0---0-3-2--2--0--7--0-3-3---|
G|---0-3-2--2---0-3-2--2--2-0---0-3-2--2--0--7--0-3-3---|
C|---0-3-2--2---0-3-2--2--2-0---0-3-2--2--0--7--0-3-3---|
     .          . .             .

D|--------------------------------------------|
A|--------------------------------------------|
F|--------------------------------------------|
C|---0-3-2--2---0-3-2--2--2-0---0-3-2--2--0---|
G|---0-3-2--2---0-3-2--2--2-0---0-3-2--2--0---|
C|---0-3-2--2---0-3-2--2--2-0---0-3-2--2--0---|
     .          .               .

(outro)
D|------------------------------------------------------------------------|
A|------------------------------------------------------------------------|
F|------------------------------------------------------------------------|
C|---7-7-7-7-7-7-7-7-5-5-5-5-5-5-5-5-3-3-3-3-3-3-3-3-3-3-3-3-3-3-3-3-0~~--|
G|---7-7-7-7-7-7-7-7-5-5-5-5-5-5-5-5-3-3-3-3-3-3-3-3-3-3-3-3-3-3-3-3-0~~--|
C|---7-7-7-7-7-7-7-7-5-5-5-5-5-5-5-5-3-3-3-3-3-3-3-3-3-3-3-3-3-3-3-3-0~~--|

that's about it. i didn't tab this one in sections because there are a lot of 
variations, so it had to be fully drawn out. hope you enjoy it. if you have any questions or 
additions, feel free to post them. remember Quorthon and keep metal alive! \m/

KEY

. = palm-muted note
h = hammer-on
/ - slide down (towards your right hand)
\ - slide up (away from your right hand)
~ - sustain/hold note
b - bend
Tap to rate this tab
# A B C D E F G H I J K L M N O P Q R S T U V W X Y Z